999
dxfrw 0.6.3
  0
SECTION
  2
HEADER
  9
$ACADVER
  1
AC1021
  9
$DWGCODEPAGE
  3
ANSI_1252
  9
$INSBASE
 10
0
 20
0
 30
0
  9
$EXTMIN
 10
-3.810000000000567
 20
-17.78000000000057
 30
0
  9
$EXTMAX
 10
106.1900340000006
 20
92.67698
 30
0
  9
$LIMMIN
 10
-1624.236528
 20
-1648.695458
  9
$LIMMAX
 10
2146.181636
 20
1610.78037
  9
$ORTHOMODE
 70
    0
  9
$REGENMODE
 70
    1
  9
$FILLMODE
 70
    1
  9
$QTEXTMODE
 70
    0
  9
$MIRRTEXT
 70
    0
  9
$LTSCALE
 40
1
  9
$ATTMODE
 70
    0
  9
$TEXTSIZE
 40
2.5
  9
$TRACEWID
 40
15.68
  9
$TEXTSTYLE
  7
STANDARD
  9
$CLAYER
  8
0
  9
$CELTYPE
  6
BYLAYER
  9
$CECOLOR
 62
  256
  9
$CELTSCALE
 40
1
  9
$DISPSILH
 70
    0
  9
$DIMSCALE
 40
2.5
  9
$DIMASZ
 40
2.5
  9
$DIMEXO
 40
0.625
  9
$DIMDLI
 40
3.75
  9
$DIMRND
 40
0
  9
$DIMDLE
 40
0
  9
$DIMEXE
 40
1.25
  9
$DIMTP
 40
0
  9
$DIMTM
 40
0
  9
$DIMTXT
 40
2.5
  9
$DIMCEN
 40
2.5
  9
$DIMTSZ
 40
0
  9
$DIMTOL
 70
    0
  9
$DIMLIM
 70
    0
  9
$DIMTIH
 70
    0
  9
$DIMTOH
 70
    0
  9
$DIMSE1
 70
    0
  9
$DIMSE2
 70
    0
  9
$DIMTAD
 70
    1
  9
$DIMZIN
 70
    8
  9
$DIMBLK
  1

  9
$DIMASO
 70
    1
  9
$DIMSHO
 70
    1
  9
$DIMPOST
  1

  9
$DIMAPOST
  1

  9
$DIMALT
 70
    0
  9
$DIMALTD
 70
    3
  9
$DIMALTF
 40
0.03937
  9
$DIMLFAC
 40
1
  9
$DIMTOFL
 70
    1
  9
$DIMTVP
 40
0
  9
$DIMTIX
 70
    0
  9
$DIMSOXD
 70
    0
  9
$DIMSAH
 70
    0
  9
$DIMBLK1
  1

  9
$DIMBLK2
  1

  9
$DIMSTYLE
  2
Standard
  9
$DIMCLRD
 70
    0
  9
$DIMCLRE
 70
    0
  9
$DIMCLRT
 70
    0
  9
$DIMTFAC
 40
1
  9
$DIMGAP
 40
0.625
  9
$DIMJUST
 70
    0
  9
$DIMSD1
 70
    0
  9
$DIMSD2
 70
    0
  9
$DIMTOLJ
 70
    0
  9
$DIMTZIN
 70
    8
  9
$DIMALTZ
 70
    0
  9
$DIMALTTZ
 70
    0
  9
$DIMUPT
 70
    0
  9
$DIMDEC
 70
    2
  9
$DIMTDEC
 70
    2
  9
$DIMALTU
 70
    2
  9
$DIMALTTD
 70
    3
  9
$DIMTXSTY
  7
STANDARD
  9
$DIMAUNIT
 70
    0
  9
$DIMADEC
 70
    0
  9
$DIMALTRND
 40
0
  9
$DIMAZIN
 70
    0
  9
$DIMDSEP
 70
   44
  9
$DIMATFIT
 70
    3
  9
$DIMFRAC
 70
    0
  9
$DIMLDRBLK
  1
STANDARD
  9
$DIMLUNIT
 70
    2
  9
$DIMLWD
 70
   -2
  9
$DIMLWE
 70
   -2
  9
$DIMTMOVE
 70
    0
  9
$DIMFXL
 40
1
  9
$DIMFXLON
 70
    0
  9
$DIMJOGANG
 40
0.7854
  9
$DIMTFILL
 70
    0
  9
$DIMTFILLCLR
 70
    0
  9
$DIMARCSYM
 70
    0
  9
$DIMLTYPE
  6

  9
$DIMLTEX1
  6

  9
$DIMLTEX2
  6

  9
$LUNITS
 70
    2
  9
$LUPREC
 70
    2
  9
$SKETCHINC
 40
1
  9
$FILLETRAD
 40
0
  9
$AUNITS
 70
    0
  9
$AUPREC
 70
    2
  9
$MENU
  1
.
  9
$ELEVATION
 40
0
  9
$PELEVATION
 40
0
  9
$THICKNESS
 40
3.954018
  9
$LIMCHECK
 70
    0
  9
$CHAMFERA
 40
0
  9
$CHAMFERB
 40
0
  9
$CHAMFERC
 40
0
  9
$CHAMFERD
 40
0
  9
$SKPOLY
 70
    0
  9
$USRTIMER
 70
    1
  9
$ANGBASE
 50
0
  9
$ANGDIR
 70
    0
  9
$PDMODE
 70
   34
  9
$PDSIZE
 40
0
  9
$PLINEWID
 40
0
  9
$SPLFRAME
 70
    0
  9
$SPLINETYPE
 70
    2
  9
$SPLINESEGS
 70
    8
  9
$HANDSEED
  5
20000
  9
$SURFTAB1
 70
    6
  9
$SURFTAB2
 70
    6
  9
$SURFTYPE
 70
    6
  9
$SURFU
 70
    6
  9
$SURFV
 70
    6
  9
$UCSBASE
  2

  9
$UCSNAME
  2

  9
$UCSORG
 10
0
 20
0
 30
0
  9
$UCSXDIR
 10
1
 20
0
 30
0
  9
$UCSYDIR
 10
0
 20
1
 30
0
  9
$UCSORTHOREF
  2

  9
$UCSORTHOVIEW
 70
    0
  9
$UCSORGTOP
 10
0
 20
0
 30
0
  9
$UCSORGBOTTOM
 10
0
 20
0
 30
0
  9
$UCSORGLEFT
 10
0
 20
0
 30
0
  9
$UCSORGRIGHT
 10
0
 20
0
 30
0
  9
$UCSORGFRONT
 10
0
 20
0
 30
0
  9
$UCSORGBACK
 10
0
 20
0
 30
0
  9
$PUCSBASE
  2

  9
$PUCSNAME
  2

  9
$PUCSORG
 10
0
 20
0
 30
0
  9
$PUCSXDIR
 10
1
 20
0
 30
0
  9
$PUCSYDIR
 10
0
 20
1
 30
0
  9
$PUCSORTHOREF
  2

  9
$PUCSORTHOVIEW
 70
    0
  9
$PUCSORGTOP
 10
0
 20
0
 30
0
  9
$PUCSORGBOTTOM
 10
0
 20
0
 30
0
  9
$PUCSORGLEFT
 10
0
 20
0
 30
0
  9
$PUCSORGRIGHT
 10
0
 20
0
 30
0
  9
$PUCSORGFRONT
 10
0
 20
0
 30
0
  9
$PUCSORGBACK
 10
0
 20
0
 30
0
  9
$USERI1
 70
    0
  9
$USERI2
 70
    0
  9
$USERI3
 70
    0
  9
$USERI4
 70
    0
  9
$USERI5
 70
    0
  9
$USERR1
 40
0
  9
$USERR2
 40
0
  9
$USERR3
 40
0
  9
$USERR4
 40
0
  9
$USERR5
 40
0
  9
$WORLDVIEW
 70
    1
  9
$SHADEDGE
 70
    3
  9
$SHADEDIF
 70
   70
  9
$TILEMODE
 70
    1
  9
$MAXACTVP
 70
   64
  9
$PINSBASE
 10
0
 20
0
 30
0
  9
$PLIMCHECK
 70
    0
  9
$PEXTMIN
 10
0
 20
0
 30
0
  9
$PEXTMAX
 10
0
 20
0
 30
0
  9
$SNAPSTYLE
 70
    0
  9
$PLIMMIN
 10
0
 20
0
  9
$PLIMMAX
 10
279.4
 20
215.9
  9
$UNITMODE
 70
    0
  9
$VISRETAIN
 70
    1
  9
$PLINEGEN
 70
    0
  9
$PSLTSCALE
 70
    1
  9
$TREEDEPTH
 70
 3020
  9
$CMLSTYLE
  2
Standard
  9
$CMLJUST
 70
    0
  9
$CMLSCALE
 40
20
  9
$PROXYGRAPHICS
 70
    1
  9
$MEASUREMENT
 70
    1
  9
$CELWEIGHT
370
   -1
  9
$ENDCAPS
280
    0
  9
$JOINSTYLE
280
    0
  9
$LWDISPLAY
290
    0
  9
$INSUNITS
 70
    4
  9
$HYPERLINKBASE
  1

  9
$STYLESHEET
  1

  9
$XEDIT
290
    1
  9
$CEPSNTYPE
380
    0
  9
$PSTYLEMODE
290
    1
  9
$EXTNAMES
290
    1
  9
$PSVPSCALE
 40
1
  9
$OLESTARTUP
290
    0
  9
$SORTENTS
280
  127
  9
$INDEXCTL
280
    0
  9
$HIDETEXT
280
    1
  9
$XCLIPFRAME
290
    0
  9
$HALOGAP
280
    0
  9
$OBSCOLOR
 70
  257
  9
$OBSLTYPE
280
    0
  9
$INTERSECTIONDISPLAY
280
    0
  9
$INTERSECTIONCOLOR
 70
  257
  9
$DIMASSOC
280
    1
  9
$PROJECTNAME
  1

  9
$CAMERADISPLAY
290
    0
  9
$LENSLENGTH
 40
50
  9
$CAMERAHEIGHT
 40
0
  9
$STEPSPERSEC
 40
2
  9
$STEPSIZE
 40
50
  9
$3DDWFPREC
 40
2
  9
$PSOLWIDTH
 40
5
  9
$PSOLHEIGHT
 40
80
  9
$LOFTANG1
 40
1.570796326794897
  9
$LOFTANG2
 40
1.570796326794897
  9
$LOFTMAG1
 40
0
  9
$LOFTMAG2
 40
0
  9
$LOFTPARAM
 70
    7
  9
$LOFTNORMALS
280
    1
  9
$LATITUDE
 40
1
  9
$LONGITUDE
 40
1
  9
$NORTHDIRECTION
 40
0
  9
$TIMEZONE
 70
-8000
  9
$LIGHTGLYPHDISPLAY
280
    1
  9
$TILEMODELIGHTSYNCH
280
    1
  9
$SOLIDHIST
280
    1
  9
$SHOWHIST
280
    1
  9
$DWFFRAME
280
    2
  9
$DGNFRAME
280
    0
  9
$REALWORLDSCALE
290
    1
  9
$INTERFERECOLOR
 62
    1
  9
$CSHADOW
280
    0
  9
$SHADOWPLANELOCATION
 40
0
  0
ENDSEC
  0
SECTION
  2
CLASSES
  0
ENDSEC
  0
SECTION
  2
TABLES
  0
TABLE
  2
VPORT
  5
8
330
0
100
AcDbSymbolTable
 70
    1
  0
VPORT
  5
31
330
2
100
AcDbSymbolTableRecord
100
AcDbViewportTableRecord
  2
*ACTIVE
 70
    0
 10
0
 20
0
 11
1
 21
1
 12
89.63267066344945
 22
82.20996512413254
 13
0
 23
0
 14
10
 24
10
 15
10
 25
10
 16
0
 26
0
 36
1
 17
0
 27
0
 37
0
 40
241.4480065996669
 41
1.205916473317865
 42
50
 43
0
 44
0
 50
0
 51
0
 71
    0
 72
  100
 73
    1
 74
    3
 75
    0
 76
    1
 77
    0
 78
    0
281
    0
 65
    1
110
0
120
0
130
0
111
1
121
0
131
0
112
0
122
1
132
0
 79
    0
146
0
348
10020
 60
    7
 61
    5
292
1
282
    1
141
0
142
0
 63
  250
421
3358443
  0
ENDTAB
  0
TABLE
  2
LTYPE
  5
5
330
0
100
AcDbSymbolTable
 70
    4
  0
LTYPE
  5
14
330
5
100
AcDbSymbolTableRecord
100
AcDbLinetypeTableRecord
  2
ByBlock
 70
    0
  3

 72
   65
 73
    0
 40
0
  0
LTYPE
  5
15
330
5
100
AcDbSymbolTableRecord
100
AcDbLinetypeTableRecord
  2
ByLayer
 70
    0
  3

 72
   65
 73
    0
 40
0
  0
LTYPE
  5
16
330
5
100
AcDbSymbolTableRecord
100
AcDbLinetypeTableRecord
  2
Continuous
 70
    0
  3
Solid line
 72
   65
 73
    0
 40
0
  0
LTYPE
  5
32
330
5
100
AcDbSymbolTableRecord
100
AcDbLinetypeTableRecord
  2
DOT
 70
    0
  3
Dot . . . . . . . . . . . . . . . . . . . . . .
 72
   65
 73
    2
 40
6.35
 49
0
 74
    0
 49
-6.35
 74
    0
  0
LTYPE
  5
33
330
5
100
AcDbSymbolTableRecord
100
AcDbLinetypeTableRecord
  2
DOTTINY
 70
    0
  3
Dot (.15x) .....................................
 72
   65
 73
    2
 40
0.9525
 49
0
 74
    0
 49
-0.9525
 74
    0
  0
LTYPE
  5
34
330
5
100
AcDbSymbolTableRecord
100
AcDbLinetypeTableRecord
  2
DOT2
 70
    0
  3
Dot (.5x) .....................................
 72
   65
 73
    2
 40
3.175
 49
0
 74
    0
 49
-3.175
 74
    0
  0
LTYPE
  5
35
330
5
100
AcDbSymbolTableRecord
100
AcDbLinetypeTableRecord
  2
DOTX2
 70
    0
  3
Dot (2x) .  .  .  .  .  .  .  .  .  .  .  .  .
 72
   65
 73
    2
 40
12.7
 49
0
 74
    0
 49
-12.7
 74
    0
  0
LTYPE
  5
36
330
5
100
AcDbSymbolTableRecord
100
AcDbLinetypeTableRecord
  2
DASHED
 70
    0
  3
Dashed _ _ _ _ _ _ _ _ _ _ _ _ _ _ _ _ _
 72
   65
 73
    2
 40
19.05
 49
12.7
 74
    0
 49
-6.35
 74
    0
  0
LTYPE
  5
37
330
5
100
AcDbSymbolTableRecord
100
AcDbLinetypeTableRecord
  2
DASHEDTINY
 70
    0
  3
Dashed (.15x) _ _ _ _ _ _ _ _ _ _ _ _ _ _ _ _ _
 72
   65
 73
    2
 40
2.8575
 49
1.905
 74
    0
 49
-0.9525
 74
    0
  0
LTYPE
  5
38
330
5
100
AcDbSymbolTableRecord
100
AcDbLinetypeTableRecord
  2
DASHED2
 70
    0
  3
Dashed (.5x) _ _ _ _ _ _ _ _ _ _ _ _ _ _ _ _ _
 72
   65
 73
    2
 40
9.524999999999999
 49
6.35
 74
    0
 49
-3.175
 74
    0
  0
LTYPE
  5
39
330
5
100
AcDbSymbolTableRecord
100
AcDbLinetypeTableRecord
  2
DASHEDX2
 70
    0
  3
Dashed (2x) ____  ____  ____  ____  ____  ___
 72
   65
 73
    2
 40
38.09999999999999
 49
25.4
 74
    0
 49
-12.7
 74
    0
  0
LTYPE
  5
3A
330
5
100
AcDbSymbolTableRecord
100
AcDbLinetypeTableRecord
  2
DASHDOT
 70
    0
  3
Dash dot __ . __ . __ . __ . __ . __ . __ . __
 72
   65
 73
    4
 40
25.4
 49
12.7
 74
    0
 49
-6.35
 74
    0
 49
0
 74
    0
 49
-6.35
 74
    0
  0
LTYPE
  5
3B
330
5
100
AcDbSymbolTableRecord
100
AcDbLinetypeTableRecord
  2
DASHDOTTINY
 70
    0
  3
Dash dot (.15x) _._._._._._._._._._._._._._._.
 72
   65
 73
    4
 40
3.81
 49
1.905
 74
    0
 49
-0.9525
 74
    0
 49
0
 74
    0
 49
-0.9525
 74
    0
  0
LTYPE
  5
3C
330
5
100
AcDbSymbolTableRecord
100
AcDbLinetypeTableRecord
  2
DASHDOT2
 70
    0
  3
Dash dot (.5x) _._._._._._._._._._._._._._._.
 72
   65
 73
    4
 40
12.7
 49
6.35
 74
    0
 49
-3.175
 74
    0
 49
0
 74
    0
 49
-3.175
 74
    0
  0
LTYPE
  5
3D
330
5
100
AcDbSymbolTableRecord
100
AcDbLinetypeTableRecord
  2
DASHDOTX2
 70
    0
  3
Dash dot (2x) ____  .  ____  .  ____  .  ___
 72
   65
 73
    4
 40
50.8
 49
25.4
 74
    0
 49
-12.7
 74
    0
 49
0
 74
    0
 49
-12.7
 74
    0
  0
LTYPE
  5
3E
330
5
100
AcDbSymbolTableRecord
100
AcDbLinetypeTableRecord
  2
DIVIDE
 70
    0
  3
Divide ____ . . ____ . . ____ . . ____ . . ____
 72
   65
 73
    6
 40
31.75
 49
12.7
 74
    0
 49
-6.35
 74
    0
 49
0
 74
    0
 49
-6.35
 74
    0
 49
0
 74
    0
 49
-6.35
 74
    0
  0
LTYPE
  5
3F
330
5
100
AcDbSymbolTableRecord
100
AcDbLinetypeTableRecord
  2
DIVIDETINY
 70
    0
  3
Divide (.15x) __..__..__..__..__..__..__..__.._
 72
   65
 73
    6
 40
4.7625
 49
1.905
 74
    0
 49
-0.9525
 74
    0
 49
0
 74
    0
 49
-0.9525
 74
    0
 49
0
 74
    0
 49
-0.9525
 74
    0
  0
LTYPE
  5
40
330
5
100
AcDbSymbolTableRecord
100
AcDbLinetypeTableRecord
  2
DIVIDE2
 70
    0
  3
Divide (.5x) __..__..__..__..__..__..__..__.._
 72
   65
 73
    6
 40
15.875
 49
6.35
 74
    0
 49
-3.175
 74
    0
 49
0
 74
    0
 49
-3.175
 74
    0
 49
0
 74
    0
 49
-3.175
 74
    0
  0
LTYPE
  5
41
330
5
100
AcDbSymbolTableRecord
100
AcDbLinetypeTableRecord
  2
DIVIDEX2
 70
    0
  3
Divide (2x) ________  .  .  ________  .  .  _
 72
   65
 73
    6
 40
63.5
 49
25.4
 74
    0
 49
-12.7
 74
    0
 49
0
 74
    0
 49
-12.7
 74
    0
 49
0
 74
    0
 49
-12.7
 74
    0
  0
LTYPE
  5
42
330
5
100
AcDbSymbolTableRecord
100
AcDbLinetypeTableRecord
  2
BORDER
 70
    0
  3
Border __ __ . __ __ . __ __ . __ __ . __ __ .
 72
   65
 73
    6
 40
44.45
 49
12.7
 74
    0
 49
-6.35
 74
    0
 49
12.7
 74
    0
 49
-6.35
 74
    0
 49
0
 74
    0
 49
-6.35
 74
    0
  0
LTYPE
  5
43
330
5
100
AcDbSymbolTableRecord
100
AcDbLinetypeTableRecord
  2
BORDERTINY
 70
    0
  3
Border (.15x) __.__.__.__.__.__.__.__.__.__.__.
 72
   65
 73
    6
 40
6.6675
 49
1.905
 74
    0
 49
-0.9525
 74
    0
 49
1.905
 74
    0
 49
-0.9525
 74
    0
 49
0
 74
    0
 49
-0.9525
 74
    0
  0
LTYPE
  5
44
330
5
100
AcDbSymbolTableRecord
100
AcDbLinetypeTableRecord
  2
BORDER2
 70
    0
  3
Border (.5x) __.__.__.__.__.__.__.__.__.__.__.
 72
   65
 73
    6
 40
22.225
 49
6.35
 74
    0
 49
-3.175
 74
    0
 49
6.35
 74
    0
 49
-3.175
 74
    0
 49
0
 74
    0
 49
-3.175
 74
    0
  0
LTYPE
  5
45
330
5
100
AcDbSymbolTableRecord
100
AcDbLinetypeTableRecord
  2
BORDERX2
 70
    0
  3
Border (2x) ____  ____  .  ____  ____  .  ___
 72
   65
 73
    6
 40
88.89999999999999
 49
25.4
 74
    0
 49
-12.7
 74
    0
 49
25.4
 74
    0
 49
-12.7
 74
    0
 49
0
 74
    0
 49
-12.7
 74
    0
  0
LTYPE
  5
46
330
5
100
AcDbSymbolTableRecord
100
AcDbLinetypeTableRecord
  2
CENTER
 70
    0
  3
Center ____ _ ____ _ ____ _ ____ _ ____ _ ____
 72
   65
 73
    4
 40
50.8
 49
31.75
 74
    0
 49
-6.35
 74
    0
 49
6.35
 74
    0
 49
-6.35
 74
    0
  0
LTYPE
  5
47
330
5
100
AcDbSymbolTableRecord
100
AcDbLinetypeTableRecord
  2
CENTERTINY
 70
    0
  3
Center (.15x) ___ _ ___ _ ___ _ ___ _ ___ _ ___
 72
   65
 73
    4
 40
7.619999999999999
 49
4.7625
 74
    0
 49
-0.9525
 74
    0
 49
0.9525
 74
    0
 49
-0.9525
 74
    0
  0
LTYPE
  5
48
330
5
100
AcDbSymbolTableRecord
100
AcDbLinetypeTableRecord
  2
CENTER2
 70
    0
  3
Center (.5x) ___ _ ___ _ ___ _ ___ _ ___ _ ___
 72
   65
 73
    4
 40
28.575
 49
19.05
 74
    0
 49
-3.175
 74
    0
 49
3.175
 74
    0
 49
-3.175
 74
    0
  0
LTYPE
  5
49
330
5
100
AcDbSymbolTableRecord
100
AcDbLinetypeTableRecord
  2
CENTERX2
 70
    0
  3
Center (2x) ________  __  ________  __  _____
 72
   65
 73
    4
 40
101.6
 49
63.5
 74
    0
 49
-12.7
 74
    0
 49
12.7
 74
    0
 49
-12.7
 74
    0
  0
ENDTAB
  0
TABLE
  2
LAYER
  5
2
330
0
100
AcDbSymbolTable
 70
    1
  0
LAYER
  5
10
330
2
100
AcDbSymbolTableRecord
100
AcDbLayerTableRecord
  2
0
 70
    0
 62
    7
  6
CONTINUOUS
370
    0
390
F
  0
LAYER
  5
4A
330
2
100
AcDbSymbolTableRecord
100
AcDbLayerTableRecord
  2
BOARD_GEOMETRY_OUTLINE
 70
    0
 62
    2
  6
CONTINUOUS
370
   -3
390
F
  0
LAYER
  5
4B
330
2
100
AcDbSymbolTableRecord
100
AcDbLayerTableRecord
  2
BOARD_GEOMETR_SILKSCREEN_BOTTO
 70
    0
 62
    1
  6
CONTINUOUS
370
   -3
390
F
  0
LAYER
  5
4C
330
2
100
AcDbSymbolTableRecord
100
AcDbLayerTableRecord
  2
CDN_FIGURES
 70
    0
 62
    7
  6
CONTINUOUS
370
   -3
390
F
  0
LAYER
  5
4D
330
2
100
AcDbSymbolTableRecord
100
AcDbLayerTableRecord
  2
PACKAGE_GEOMET_SILKSCREEN_BOTT
 70
    0
 62
    3
  6
CONTINUOUS
370
   -3
390
F
  0
LAYER
  5
4E
330
2
100
AcDbSymbolTableRecord
100
AcDbLayerTableRecord
  2
REF_DES_SILKSCREEN_BOTTOM
 70
    0
 62
    5
  6
CONTINUOUS
370
   -3
390
F
  0
ENDTAB
  0
TABLE
  2
STYLE
  5
3
330
0
100
AcDbSymbolTable
 70
    3
  0
STYLE
  5
4F
330
2
100
AcDbSymbolTableRecord
100
AcDbTextStyleTableRecord
  2
standard
 70
    0
 40
0
 41
1
 50
0
 71
    0
 42
1
  3
standard
  4

  0
ENDTAB
  0
TABLE
  2
VIEW
  5
6
330
0
100
AcDbSymbolTable
 70
    0
  0
ENDTAB
  0
TABLE
  2
UCS
  5
7
330
0
100
AcDbSymbolTable
 70
    0
  0
ENDTAB
  0
TABLE
  2
APPID
  5
9
330
0
100
AcDbSymbolTable
 70
    1
  0
APPID
  5
12
330
9
100
AcDbSymbolTableRecord
100
AcDbRegAppTableRecord
  2
ACAD
 70
    0
  0
APPID
  5
50
330
9
100
AcDbSymbolTableRecord
100
AcDbRegAppTableRecord
  2
LibreCad
 70
    0
  0
ENDTAB
  0
TABLE
  2
DIMSTYLE
  5
A
330
0
100
AcDbSymbolTable
 70
    1
100
AcDbDimStyleTable
 71
    1
  0
DIMSTYLE
105
51
330
A
100
AcDbSymbolTableRecord
100
AcDbDimStyleTableRecord
  2
Standard
 70
    0
 40
1
 41
2.5
 42
0.625
 43
0.38
 44
1.25
 45
0
 46
0
 47
0
 48
0
 49
1
140
2.5
141
0.09
142
2.5
143
25.4
144
1
145
0
146
1
147
0.625
148
0
 71
    0
 72
    0
 73
    0
 74
    1
 75
    0
 76
    0
 77
    0
 78
    1
 79
    0
170
    0
171
    2
172
    0
173
    0
174
    0
175
    0
176
    0
177
    0
178
    0
179
    0
271
    2
272
    4
273
    2
274
    2
275
    0
276
    0
277
    2
278
    0
279
    0
280
    0
281
    0
282
    0
283
    1
284
    0
285
    0
286
    0
288
    0
289
    3
340
standard
341

371
   -2
372
   -2
  0
ENDTAB
  0
TABLE
  2
BLOCK_RECORD
  5
1
330
0
100
AcDbSymbolTable
 70
    2
  0
BLOCK_RECORD
  5
1F
330
1
100
AcDbSymbolTableRecord
100
AcDbBlockTableRecord
  2
*Model_Space
 70
    0
280
    1
281
    0
  0
BLOCK_RECORD
  5
1E
330
1
100
AcDbSymbolTableRecord
100
AcDbBlockTableRecord
  2
*Paper_Space
 70
    0
280
    1
281
    0
  0
BLOCK_RECORD
  5
52
330
1
100
AcDbSymbolTableRecord
100
AcDbBlockTableRecord
  2
FIGURE_CIRCLE
 70
    0
280
    1
281
    0
  0
BLOCK_RECORD
  5
55
330
1
100
AcDbSymbolTableRecord
100
AcDbBlockTableRecord
  2
FIGURE_SQUARE
 70
    0
280
    1
281
    0
  0
BLOCK_RECORD
  5
58
330
1
100
AcDbSymbolTableRecord
100
AcDbBlockTableRecord
  2
FIGURE_HEX
 70
    0
280
    1
281
    0
  0
BLOCK_RECORD
  5
5B
330
1
100
AcDbSymbolTableRecord
100
AcDbBlockTableRecord
  2
FIGURE_OCT
 70
    0
280
    1
281
    0
  0
BLOCK_RECORD
  5
5E
330
1
100
AcDbSymbolTableRecord
100
AcDbBlockTableRecord
  2
FIGURE_OBLONG
 70
    0
280
    1
281
    0
  0
BLOCK_RECORD
  5
61
330
1
100
AcDbSymbolTableRecord
100
AcDbBlockTableRecord
  2
FIGURE_TRI
 70
    0
280
    1
281
    0
  0
BLOCK_RECORD
  5
64
330
1
100
AcDbSymbolTableRecord
100
AcDbBlockTableRecord
  2
FIGURE_CROSS
 70
    0
280
    1
281
    0
  0
BLOCK_RECORD
  5
67
330
1
100
AcDbSymbolTableRecord
100
AcDbBlockTableRecord
  2
FIGURE_DIAMOND
 70
    0
280
    1
281
    0
  0
ENDTAB
  0
ENDSEC
  0
SECTION
  2
BLOCKS
  0
BLOCK
  5
20
330
1F
100
AcDbEntity
  8
0
100
AcDbBlockBegin
  2
*Model_Space
 70
    0
 10
0
 20
0
 30
0
  3
*Model_Space
  1

  0
ENDBLK
  5
21
330
1F
100
AcDbEntity
  8
0
100
AcDbBlockEnd
  0
BLOCK
  5
1C
330
1B
100
AcDbEntity
  8
0
100
AcDbBlockBegin
  2
*Paper_Space
 70
    0
 10
0
 20
0
 30
0
  3
*Paper_Space
  1

  0
ENDBLK
  5
1D
330
1F
100
AcDbEntity
  8
0
100
AcDbBlockEnd
  0
BLOCK
  5
53
330
52
100
AcDbEntity
  8
0
100
AcDbBlockBegin
  2
FIGURE_CIRCLE
 70
    0
 10
0
 20
0
  3
FIGURE_CIRCLE
  1

  0
CIRCLE
  5
6A
100
AcDbEntity
  8
0
  6
ByLayer
 62
  256
370
   -1
100
AcDbCircle
 10
0
 20
0
 40
0.5
  0
ENDBLK
  5
54
330
52
100
AcDbEntity
  8
0
100
AcDbBlockEnd
  0
BLOCK
  5
56
330
55
100
AcDbEntity
  8
0
100
AcDbBlockBegin
  2
FIGURE_SQUARE
 70
    0
 10
0
 20
0
  3
FIGURE_SQUARE
  1

  0
LWPOLYLINE
  5
6B
100
AcDbEntity
  8
0
  6
ByLayer
 62
  256
370
   -1
100
AcDbPolyline
 90
    4
 70
    1
 43
0
 10
-0.5
 20
-0.5
 10
-0.5
 20
0.5
 10
0.5
 20
0.5
 10
0.5
 20
-0.5
  0
ENDBLK
  5
57
330
55
100
AcDbEntity
  8
0
100
AcDbBlockEnd
  0
BLOCK
  5
59
330
58
100
AcDbEntity
  8
0
100
AcDbBlockBegin
  2
FIGURE_HEX
 70
    0
 10
0
 20
0
  3
FIGURE_HEX
  1

  0
LWPOLYLINE
  5
6C
100
AcDbEntity
  8
0
  6
ByLayer
 62
  256
370
   -1
100
AcDbPolyline
 90
    6
 70
    1
 43
0
 10
-0.5
 20
0
 10
-0.25
 20
0.5
 10
0.25
 20
0.5
 10
0.5
 20
0
 10
0.25
 20
-0.5
 10
-0.25
 20
-0.5
  0
ENDBLK
  5
5A
330
58
100
AcDbEntity
  8
0
100
AcDbBlockEnd
  0
BLOCK
  5
5C
330
5B
100
AcDbEntity
  8
0
100
AcDbBlockBegin
  2
FIGURE_OCT
 70
    0
 10
0
 20
0
  3
FIGURE_OCT
  1

  0
LWPOLYLINE
  5
6D
100
AcDbEntity
  8
0
  6
ByLayer
 62
  256
370
   -1
100
AcDbPolyline
 90
    8
 70
    1
 43
0
 10
-0.5
 20
-0.2071
 10
-0.5
 20
0.2071
 10
-0.2071
 20
0.5
 10
0.2071
 20
0.5
 10
0.5
 20
0.2071
 10
0.5
 20
-0.2071
 10
0.2071
 20
-0.5
 10
-0.2071
 20
-0.5
  0
ENDBLK
  5
5D
330
5B
100
AcDbEntity
  8
0
100
AcDbBlockEnd
  0
BLOCK
  5
5F
330
5E
100
AcDbEntity
  8
0
100
AcDbBlockBegin
  2
FIGURE_OBLONG
 70
    0
 10
0
 20
0
  3
FIGURE_OBLONG
  1

  0
LWPOLYLINE
  5
6E
100
AcDbEntity
  8
0
  6
ByLayer
 62
  256
370
   -1
100
AcDbPolyline
 90
   12
 70
    1
 43
0
 10
-0.5
 20
-0.125
 10
-0.5
 20
0.125
 10
-0.416
 20
0.375
 10
-0.25
 20
0.5
 10
0.25
 20
0.5
 10
0.416
 20
0.375
 10
0.5
 20
0.125
 10
0.5
 20
-0.125
 10
0.416
 20
-0.375
 10
0.25
 20
-0.5
 10
-0.25
 20
-0.5
 10
-0.416
 20
-0.375
  0
ENDBLK
  5
60
330
5E
100
AcDbEntity
  8
0
100
AcDbBlockEnd
  0
BLOCK
  5
62
330
61
100
AcDbEntity
  8
0
100
AcDbBlockBegin
  2
FIGURE_TRI
 70
    0
 10
0
 20
0
  3
FIGURE_TRI
  1

  0
LWPOLYLINE
  5
6F
100
AcDbEntity
  8
0
  6
ByLayer
 62
  256
370
   -1
100
AcDbPolyline
 90
    3
 70
    1
 43
0
 10
-0.5
 20
-0.5
 10
0
 20
0.5
 10
0.5
 20
-0.5
  0
ENDBLK
  5
63
330
61
100
AcDbEntity
  8
0
100
AcDbBlockEnd
  0
BLOCK
  5
65
330
64
100
AcDbEntity
  8
0
100
AcDbBlockBegin
  2
FIGURE_CROSS
 70
    0
 10
0
 20
0
  3
FIGURE_CROSS
  1

  0
LWPOLYLINE
  5
70
100
AcDbEntity
  8
0
  6
ByLayer
 62
  256
370
   -1
100
AcDbPolyline
 90
    2
 70
    0
 43
0
 10
-0.5
 20
0
 10
0.5
 20
0
  0
LWPOLYLINE
  5
71
100
AcDbEntity
  8
CDN_FIGURES
  6
ByLayer
 62
  256
370
   -1
100
AcDbPolyline
 90
    2
 70
    0
 43
0
 10
0
 20
0.5
 10
0
 20
-0.5
  0
ENDBLK
  5
66
330
64
100
AcDbEntity
  8
0
100
AcDbBlockEnd
  0
BLOCK
  5
68
330
67
100
AcDbEntity
  8
0
100
AcDbBlockBegin
  2
FIGURE_DIAMOND
 70
    0
 10
0
 20
0
  3
FIGURE_DIAMOND
  1

  0
LWPOLYLINE
  5
72
100
AcDbEntity
  8
0
  6
ByLayer
 62
  256
370
   -1
100
AcDbPolyline
 90
    4
 70
    1
 43
0
 10
-0.5
 20
0
 10
0
 20
0.5
 10
0.5
 20
0
 10
0
 20
-0.5
  0
ENDBLK
  5
69
330
67
100
AcDbEntity
  8
0
100
AcDbBlockEnd
  0
ENDSEC
  0
SECTION
  2
ENTITIES
  0
CIRCLE
  5
73
100
AcDbEntity
  8
0
  6
ByLayer
 62
  256
370
   -1
100
AcDbCircle
 10
44.230036
 20
-8.715756000000001
 40
1.524
  0
CIRCLE
  5
74
100
AcDbEntity
  8
0
  6
ByLayer
 62
  256
370
   -1
100
AcDbCircle
 10
57.369964
 20
-8.715756000000001
 40
1.524
  0
CIRCLE
  5
75
100
AcDbEntity
  8
0
  6
ByLayer
 62
  256
370
   -1
100
AcDbCircle
 10
44.230036
 20
-3.015742
 40
1.524
  0
CIRCLE
  5
76
100
AcDbEntity
  8
0
  6
ByLayer
 62
  256
370
   -1
100
AcDbCircle
 10
57.369964
 20
-3.015742
 40
1.524
  0
CIRCLE
  5
77
100
AcDbEntity
  8
0
  6
ByLayer
 62
  256
370
   -1
100
AcDbCircle
 10
41.450006
 20
-11.32586
 40
1.524
  0
CIRCLE
  5
78
100
AcDbEntity
  8
0
  6
ByLayer
 62
  256
370
   -1
100
AcDbCircle
 10
60.149994
 20
-11.32586
 40
1.524
  0
CIRCLE
  5
79
100
AcDbEntity
  8
0
  6
ByLayer
 62
  256
370
   -1
100
AcDbCircle
 10
41.450006
 20
2.134108
 40
1.524
  0
CIRCLE
  5
7A
100
AcDbEntity
  8
0
  6
ByLayer
 62
  256
370
   -1
100
AcDbCircle
 10
60.149994
 20
2.25425
 40
1.524
  0
CIRCLE
  5
7B
100
AcDbEntity
  8
0
  6
ByLayer
 62
  256
370
   -1
100
AcDbCircle
 10
54.799992
 20
-1.995678
 40
0.609473
  0
CIRCLE
  5
7C
100
AcDbEntity
  8
0
  6
ByLayer
 62
  256
370
   -1
100
AcDbCircle
 10
54.299866
 20
-3.495802
 40
0.609473
  0
CIRCLE
  5
7D
100
AcDbEntity
  8
0
  6
ByLayer
 62
  256
370
   -1
100
AcDbCircle
 10
52.799996
 20
-1.995678
 40
0.609473
  0
CIRCLE
  5
7E
100
AcDbEntity
  8
0
  6
ByLayer
 62
  256
370
   -1
100
AcDbCircle
 10
51.799998
 20
-3.495802
 40
0.609473
  0
CIRCLE
  5
7F
100
AcDbEntity
  8
0
  6
ByLayer
 62
  256
370
   -1
100
AcDbCircle
 10
50.8
 20
-1.995678
 40
0.609473
  0
CIRCLE
  5
80
100
AcDbEntity
  8
0
  6
ByLayer
 62
  256
370
   -1
100
AcDbCircle
 10
49.800002
 20
-3.495802
 40
0.609473
  0
CIRCLE
  5
81
100
AcDbEntity
  8
0
  6
ByLayer
 62
  256
370
   -1
100
AcDbCircle
 10
48.800004
 20
-1.995678
 40
0.609473
  0
CIRCLE
  5
82
100
AcDbEntity
  8
0
  6
ByLayer
 62
  256
370
   -1
100
AcDbCircle
 10
46.800008
 20
-1.995678
 40
0.609473
  0
CIRCLE
  5
83
100
AcDbEntity
  8
0
  6
ByLayer
 62
  256
370
   -1
100
AcDbCircle
 10
47.29988
 20
-3.495802
 40
0.609473
  0
CIRCLE
  5
84
100
AcDbEntity
  8
0
  6
ByLayer
 62
  256
370
   -1
100
AcDbCircle
 10
54.299866
 20
-6.695694
 40
0.609473
  0
CIRCLE
  5
85
100
AcDbEntity
  8
0
  6
ByLayer
 62
  256
370
   -1
100
AcDbCircle
 10
51.799998
 20
-6.695694
 40
0.609473
  0
CIRCLE
  5
86
100
AcDbEntity
  8
0
  6
ByLayer
 62
  256
370
   -1
100
AcDbCircle
 10
46.800008
 20
-5.195824
 40
0.609473
  0
CIRCLE
  5
87
100
AcDbEntity
  8
0
  6
ByLayer
 62
  256
370
   -1
100
AcDbCircle
 10
48.800004
 20
-5.195824
 40
0.609473
  0
CIRCLE
  5
88
100
AcDbEntity
  8
0
  6
ByLayer
 62
  256
370
   -1
100
AcDbCircle
 10
50.8
 20
-5.195824
 40
0.609473
  0
CIRCLE
  5
89
100
AcDbEntity
  8
0
  6
ByLayer
 62
  256
370
   -1
100
AcDbCircle
 10
52.799996
 20
-5.195824
 40
0.609473
  0
CIRCLE
  5
8A
100
AcDbEntity
  8
0
  6
ByLayer
 62
  256
370
   -1
100
AcDbCircle
 10
54.799992
 20
-5.195824
 40
0.609473
  0
CIRCLE
  5
8B
100
AcDbEntity
  8
0
  6
ByLayer
 62
  256
370
   -1
100
AcDbCircle
 10
49.800002
 20
-6.695694
 40
0.609473
  0
CIRCLE
  5
8C
100
AcDbEntity
  8
0
  6
ByLayer
 62
  256
370
   -1
100
AcDbCircle
 10
47.29988
 20
-6.695694
 40
0.609473
  0
CIRCLE
  5
8D
100
AcDbEntity
  8
0
  6
ByLayer
 62
  256
370
   -1
100
AcDbCircle
 10
58.004964
 20
7.48411
 40
0.762
  0
CIRCLE
  5
8E
100
AcDbEntity
  8
0
  6
ByLayer
 62
  256
370
   -1
100
AcDbCircle
 10
55.464964
 20
7.48411
 40
0.762
  0
CIRCLE
  5
8F
100
AcDbEntity
  8
0
  6
ByLayer
 62
  256
370
   -1
100
AcDbCircle
 10
46.135036
 20
7.48411
 40
0.762
  0
CIRCLE
  5
90
100
AcDbEntity
  8
0
  6
ByLayer
 62
  256
370
   -1
100
AcDbCircle
 10
43.595036
 20
7.48411
 40
0.762
  0
CIRCLE
  5
91
100
AcDbEntity
  8
0
  6
ByLayer
 62
  256
370
   -1
100
AcDbCircle
 10
45.085
 20
4.70408
 40
0.762
  0
CIRCLE
  5
92
100
AcDbEntity
  8
0
  6
ByLayer
 62
  256
370
   -1
100
AcDbCircle
 10
47.625
 20
4.70408
 40
0.762
  0
CIRCLE
  5
93
100
AcDbEntity
  8
0
  6
ByLayer
 62
  256
370
   -1
100
AcDbCircle
 10
50.165
 20
4.70408
 40
0.762
  0
CIRCLE
  5
94
100
AcDbEntity
  8
0
  6
ByLayer
 62
  256
370
   -1
100
AcDbCircle
 10
52.705
 20
4.70408
 40
0.762
  0
CIRCLE
  5
95
100
AcDbEntity
  8
0
  6
ByLayer
 62
  256
370
   -1
100
AcDbCircle
 10
55.245
 20
4.70408
 40
0.762
  0
CIRCLE
  5
96
100
AcDbEntity
  8
0
  6
ByLayer
 62
  256
370
   -1
100
AcDbCircle
 10
46.355
 20
2.16408
 40
0.762
  0
CIRCLE
  5
97
100
AcDbEntity
  8
0
  6
ByLayer
 62
  256
370
   -1
100
AcDbCircle
 10
48.895
 20
2.16408
 40
0.762
  0
CIRCLE
  5
98
100
AcDbEntity
  8
0
  6
ByLayer
 62
  256
370
   -1
100
AcDbCircle
 10
51.435
 20
2.16408
 40
0.762
  0
CIRCLE
  5
99
100
AcDbEntity
  8
0
  6
ByLayer
 62
  256
370
   -1
100
AcDbCircle
 10
53.975
 20
2.16408
 40
0.762
  0
CIRCLE
  5
9A
100
AcDbEntity
  8
0
  6
ByLayer
 62
  256
370
   -1
100
AcDbCircle
 10
56.515
 20
2.16408
 40
0.762
  0
CIRCLE
  5
9B
100
AcDbEntity
  8
0
  6
ByLayer
 62
  256
370
   -1
100
AcDbCircle
 10
78.73999999999999
 20
59.055
 40
2.032
  0
LWPOLYLINE
  5
9C
100
AcDbEntity
  8
PACKAGE_GEOMET_SILKSCREEN_BOTT
  6
ByLayer
 62
  256
370
   -1
100
AcDbPolyline
 90
    2
 70
    1
 43
0
 10
80.853026
 20
59.055
 42
0.9999999999999999
 10
76.62697400000002
 20
59.055
 42
0.9999999999999999
  0
CIRCLE
  5
9D
100
AcDbEntity
  8
0
  6
ByLayer
 62
  256
370
   -1
100
AcDbCircle
 10
29.845
 20
23.495
 40
2.032
  0
CIRCLE
  5
9E
100
AcDbEntity
  8
0
  6
ByLayer
 62
  256
370
   -1
100
AcDbCircle
 10
78.73999999999999
 20
23.495
 40
2.032
  0
LWPOLYLINE
  5
9F
100
AcDbEntity
  8
PACKAGE_GEOMET_SILKSCREEN_BOTT
  6
ByLayer
 62
  256
370
   -1
100
AcDbPolyline
 90
    2
 70
    1
 43
0
 10
80.853026
 20
23.495
 42
0.9999999999999999
 10
76.62697400000002
 20
23.495
 42
0.9999999999999999
  0
CIRCLE
  5
A0
100
AcDbEntity
  8
0
  6
ByLayer
 62
  256
370
   -1
100
AcDbCircle
 10
29.845
 20
59.055
 40
2.032
  0
LWPOLYLINE
  5
A1
100
AcDbEntity
  8
PACKAGE_GEOMET_SILKSCREEN_BOTT
  6
ByLayer
 62
  256
370
   -1
100
AcDbPolyline
 90
    2
 70
    1
 43
0
 10
31.958026
 20
59.055
 42
0.9999999999999999
 10
27.731974
 20
59.055
 42
0.9999999999999999
  0
CIRCLE
  5
A2
100
AcDbEntity
  8
0
  6
ByLayer
 62
  256
370
   -1
100
AcDbCircle
 10
94.61347600000001
 20
36.03498
 40
0.8001
  0
CIRCLE
  5
A3
100
AcDbEntity
  8
0
  6
ByLayer
 62
  256
370
   -1
100
AcDbCircle
 10
94.61347600000001
 20
16.03502
 40
0.5842000000000001
  0
LWPOLYLINE
  5
A4
100
AcDbEntity
  8
0
  6
ByLayer
 62
  256
370
   -1
100
AcDbPolyline
 90
    4
 70
    1
 43
0
 10
97.58959400000001
 20
35.749992
 10
100.637594
 20
35.749992
 10
100.637594
 20
37.019992
 10
97.58959400000001
 20
37.019992
  0
LWPOLYLINE
  5
A5
100
AcDbEntity
  8
0
  6
ByLayer
 62
  256
370
   -1
100
AcDbPolyline
 90
    4
 70
    1
 43
0
 10
97.58959400000001
 20
15.050008
 10
100.637594
 20
15.050008
 10
100.637594
 20
16.320008
 10
97.58959400000001
 20
16.320008
  0
CIRCLE
  5
A6
100
AcDbEntity
  8
0
  6
ByLayer
 62
  256
370
   -1
100
AcDbCircle
 10
16.363696
 20
26.035
 40
2.9972
  0
LWPOLYLINE
  5
A7
100
AcDbEntity
  8
0
  6
ByLayer
 62
  256
370
   -1
100
AcDbPolyline
 90
    4
 70
    1
 43
0
 10
91.55125200000001
 20
34.907982
 10
93.126052
 20
34.907982
 10
93.126052
 20
35.161982
 10
91.55125200000001
 20
35.161982
  0
LWPOLYLINE
  5
A8
100
AcDbEntity
  8
0
  6
ByLayer
 62
  256
370
   -1
100
AcDbPolyline
 90
    4
 70
    1
 43
0
 10
91.55125200000001
 20
34.40811
 10
93.126052
 20
34.40811
 10
93.126052
 20
34.66211
 10
91.55125200000001
 20
34.66211
  0
LWPOLYLINE
  5
A9
100
AcDbEntity
  8
0
  6
ByLayer
 62
  256
370
   -1
100
AcDbPolyline
 90
    4
 70
    1
 43
0
 10
91.55125200000001
 20
33.907984
 10
93.126052
 20
33.907984
 10
93.126052
 20
34.161984
 10
91.55125200000001
 20
34.161984
  0
LWPOLYLINE
  5
AA
100
AcDbEntity
  8
0
  6
ByLayer
 62
  256
370
   -1
100
AcDbPolyline
 90
    4
 70
    1
 43
0
 10
91.55125200000001
 20
33.408112
 10
93.126052
 20
33.408112
 10
93.126052
 20
33.662112
 10
91.55125200000001
 20
33.662112
  0
LWPOLYLINE
  5
AB
100
AcDbEntity
  8
0
  6
ByLayer
 62
  256
370
   -1
100
AcDbPolyline
 90
    4
 70
    1
 43
0
 10
91.55125200000001
 20
30.90799
 10
93.126052
 20
30.90799
 10
93.126052
 20
31.16199
 10
91.55125200000001
 20
31.16199
  0
LWPOLYLINE
  5
AC
100
AcDbEntity
  8
0
  6
ByLayer
 62
  256
370
   -1
100
AcDbPolyline
 90
    4
 70
    1
 43
0
 10
91.55125200000001
 20
30.408118
 10
93.126052
 20
30.408118
 10
93.126052
 20
30.662118
 10
91.55125200000001
 20
30.662118
  0
LWPOLYLINE
  5
AD
100
AcDbEntity
  8
0
  6
ByLayer
 62
  256
370
   -1
100
AcDbPolyline
 90
    4
 70
    1
 43
0
 10
91.55125200000001
 20
29.907992
 10
93.126052
 20
29.907992
 10
93.126052
 20
30.161992
 10
91.55125200000001
 20
30.161992
  0
LWPOLYLINE
  5
AE
100
AcDbEntity
  8
0
  6
ByLayer
 62
  256
370
   -1
100
AcDbPolyline
 90
    4
 70
    1
 43
0
 10
91.55125200000001
 20
29.40812
 10
93.126052
 20
29.40812
 10
93.126052
 20
29.66212
 10
91.55125200000001
 20
29.66212
  0
LWPOLYLINE
  5
AF
100
AcDbEntity
  8
0
  6
ByLayer
 62
  256
370
   -1
100
AcDbPolyline
 90
    4
 70
    1
 43
0
 10
91.55125200000001
 20
28.907994
 10
93.126052
 20
28.907994
 10
93.126052
 20
29.161994
 10
91.55125200000001
 20
29.161994
  0
LWPOLYLINE
  5
B0
100
AcDbEntity
  8
0
  6
ByLayer
 62
  256
370
   -1
100
AcDbPolyline
 90
    4
 70
    1
 43
0
 10
91.55125200000001
 20
28.408122
 10
93.126052
 20
28.408122
 10
93.126052
 20
28.662122
 10
91.55125200000001
 20
28.662122
  0
LWPOLYLINE
  5
B1
100
AcDbEntity
  8
0
  6
ByLayer
 62
  256
370
   -1
100
AcDbPolyline
 90
    4
 70
    1
 43
0
 10
91.55125200000001
 20
27.907996
 10
93.126052
 20
27.907996
 10
93.126052
 20
28.161996
 10
91.55125200000001
 20
28.161996
  0
LWPOLYLINE
  5
B2
100
AcDbEntity
  8
0
  6
ByLayer
 62
  256
370
   -1
100
AcDbPolyline
 90
    4
 70
    1
 43
0
 10
91.55125200000001
 20
27.408124
 10
93.126052
 20
27.408124
 10
93.126052
 20
27.662124
 10
91.55125200000001
 20
27.662124
  0
LWPOLYLINE
  5
B3
100
AcDbEntity
  8
0
  6
ByLayer
 62
  256
370
   -1
100
AcDbPolyline
 90
    4
 70
    1
 43
0
 10
91.55125200000001
 20
26.907998
 10
93.126052
 20
26.907998
 10
93.126052
 20
27.161998
 10
91.55125200000001
 20
27.161998
  0
LWPOLYLINE
  5
B4
100
AcDbEntity
  8
0
  6
ByLayer
 62
  256
370
   -1
100
AcDbPolyline
 90
    4
 70
    1
 43
0
 10
91.55125200000001
 20
26.408126
 10
93.126052
 20
26.408126
 10
93.126052
 20
26.662126
 10
91.55125200000001
 20
26.662126
  0
LWPOLYLINE
  5
B5
100
AcDbEntity
  8
0
  6
ByLayer
 62
  256
370
   -1
100
AcDbPolyline
 90
    4
 70
    1
 43
0
 10
91.55125200000001
 20
25.908
 10
93.126052
 20
25.908
 10
93.126052
 20
26.162
 10
91.55125200000001
 20
26.162
  0
LWPOLYLINE
  5
B6
100
AcDbEntity
  8
0
  6
ByLayer
 62
  256
370
   -1
100
AcDbPolyline
 90
    4
 70
    1
 43
0
 10
91.55125200000001
 20
25.407874
 10
93.126052
 20
25.407874
 10
93.126052
 20
25.661874
 10
91.55125200000001
 20
25.661874
  0
LWPOLYLINE
  5
B7
100
AcDbEntity
  8
0
  6
ByLayer
 62
  256
370
   -1
100
AcDbPolyline
 90
    4
 70
    1
 43
0
 10
91.55125200000001
 20
24.908002
 10
93.126052
 20
24.908002
 10
93.126052
 20
25.162002
 10
91.55125200000001
 20
25.162002
  0
LWPOLYLINE
  5
B8
100
AcDbEntity
  8
0
  6
ByLayer
 62
  256
370
   -1
100
AcDbPolyline
 90
    4
 70
    1
 43
0
 10
91.55125200000001
 20
24.407876
 10
93.126052
 20
24.407876
 10
93.126052
 20
24.661876
 10
91.55125200000001
 20
24.661876
  0
LWPOLYLINE
  5
B9
100
AcDbEntity
  8
0
  6
ByLayer
 62
  256
370
   -1
100
AcDbPolyline
 90
    4
 70
    1
 43
0
 10
91.55125200000001
 20
23.908004
 10
93.126052
 20
23.908004
 10
93.126052
 20
24.162004
 10
91.55125200000001
 20
24.162004
  0
LWPOLYLINE
  5
BA
100
AcDbEntity
  8
0
  6
ByLayer
 62
  256
370
   -1
100
AcDbPolyline
 90
    4
 70
    1
 43
0
 10
91.55125200000001
 20
23.407878
 10
93.126052
 20
23.407878
 10
93.126052
 20
23.661878
 10
91.55125200000001
 20
23.661878
  0
LWPOLYLINE
  5
BB
100
AcDbEntity
  8
0
  6
ByLayer
 62
  256
370
   -1
100
AcDbPolyline
 90
    4
 70
    1
 43
0
 10
91.55125200000001
 20
22.908006
 10
93.126052
 20
22.908006
 10
93.126052
 20
23.162006
 10
91.55125200000001
 20
23.162006
  0
LWPOLYLINE
  5
BC
100
AcDbEntity
  8
0
  6
ByLayer
 62
  256
370
   -1
100
AcDbPolyline
 90
    4
 70
    1
 43
0
 10
91.55125200000001
 20
22.40788
 10
93.126052
 20
22.40788
 10
93.126052
 20
22.66188
 10
91.55125200000001
 20
22.66188
  0
LWPOLYLINE
  5
BD
100
AcDbEntity
  8
0
  6
ByLayer
 62
  256
370
   -1
100
AcDbPolyline
 90
    4
 70
    1
 43
0
 10
91.55125200000001
 20
21.908008
 10
93.126052
 20
21.908008
 10
93.126052
 20
22.162008
 10
91.55125200000001
 20
22.162008
  0
LWPOLYLINE
  5
BE
100
AcDbEntity
  8
0
  6
ByLayer
 62
  256
370
   -1
100
AcDbPolyline
 90
    4
 70
    1
 43
0
 10
91.55125200000001
 20
21.407882
 10
93.126052
 20
21.407882
 10
93.126052
 20
21.661882
 10
91.55125200000001
 20
21.661882
  0
LWPOLYLINE
  5
BF
100
AcDbEntity
  8
0
  6
ByLayer
 62
  256
370
   -1
100
AcDbPolyline
 90
    4
 70
    1
 43
0
 10
91.55125200000001
 20
20.90801
 10
93.126052
 20
20.90801
 10
93.126052
 20
21.16201
 10
91.55125200000001
 20
21.16201
  0
LWPOLYLINE
  5
C0
100
AcDbEntity
  8
0
  6
ByLayer
 62
  256
370
   -1
100
AcDbPolyline
 90
    4
 70
    1
 43
0
 10
91.55125200000001
 20
20.407884
 10
93.126052
 20
20.407884
 10
93.126052
 20
20.661884
 10
91.55125200000001
 20
20.661884
  0
LWPOLYLINE
  5
C1
100
AcDbEntity
  8
0
  6
ByLayer
 62
  256
370
   -1
100
AcDbPolyline
 90
    4
 70
    1
 43
0
 10
91.55125200000001
 20
19.908012
 10
93.126052
 20
19.908012
 10
93.126052
 20
20.162012
 10
91.55125200000001
 20
20.162012
  0
LWPOLYLINE
  5
C2
100
AcDbEntity
  8
0
  6
ByLayer
 62
  256
370
   -1
100
AcDbPolyline
 90
    4
 70
    1
 43
0
 10
91.55125200000001
 20
19.407886
 10
93.126052
 20
19.407886
 10
93.126052
 20
19.661886
 10
91.55125200000001
 20
19.661886
  0
LWPOLYLINE
  5
C3
100
AcDbEntity
  8
0
  6
ByLayer
 62
  256
370
   -1
100
AcDbPolyline
 90
    4
 70
    1
 43
0
 10
91.55125200000001
 20
18.908014
 10
93.126052
 20
18.908014
 10
93.126052
 20
19.162014
 10
91.55125200000001
 20
19.162014
  0
LWPOLYLINE
  5
C4
100
AcDbEntity
  8
0
  6
ByLayer
 62
  256
370
   -1
100
AcDbPolyline
 90
    4
 70
    1
 43
0
 10
91.55125200000001
 20
18.407888
 10
93.126052
 20
18.407888
 10
93.126052
 20
18.661888
 10
91.55125200000001
 20
18.661888
  0
LWPOLYLINE
  5
C5
100
AcDbEntity
  8
0
  6
ByLayer
 62
  256
370
   -1
100
AcDbPolyline
 90
    4
 70
    1
 43
0
 10
91.55125200000001
 20
17.908016
 10
93.126052
 20
17.908016
 10
93.126052
 20
18.162016
 10
91.55125200000001
 20
18.162016
  0
LWPOLYLINE
  5
C6
100
AcDbEntity
  8
0
  6
ByLayer
 62
  256
370
   -1
100
AcDbPolyline
 90
    4
 70
    1
 43
0
 10
91.55125200000001
 20
17.40789
 10
93.126052
 20
17.40789
 10
93.126052
 20
17.66189
 10
91.55125200000001
 20
17.66189
  0
LWPOLYLINE
  5
C7
100
AcDbEntity
  8
0
  6
ByLayer
 62
  256
370
   -1
100
AcDbPolyline
 90
    4
 70
    1
 43
0
 10
91.55125200000001
 20
16.908018
 10
93.126052
 20
16.908018
 10
93.126052
 20
17.162018
 10
91.55125200000001
 20
17.162018
  0
LWPOLYLINE
  5
C8
100
AcDbEntity
  8
0
  6
ByLayer
 62
  256
370
   -1
100
AcDbPolyline
 90
    4
 70
    1
 43
0
 10
99.10114799999999
 20
35.157918
 10
100.675948
 20
35.157918
 10
100.675948
 20
35.411918
 10
99.10114799999999
 20
35.411918
  0
LWPOLYLINE
  5
C9
100
AcDbEntity
  8
0
  6
ByLayer
 62
  256
370
   -1
100
AcDbPolyline
 90
    4
 70
    1
 43
0
 10
99.10114799999999
 20
34.658046
 10
100.675948
 20
34.658046
 10
100.675948
 20
34.912046
 10
99.10114799999999
 20
34.912046
  0
LWPOLYLINE
  5
CA
100
AcDbEntity
  8
0
  6
ByLayer
 62
  256
370
   -1
100
AcDbPolyline
 90
    4
 70
    1
 43
0
 10
99.10114799999999
 20
34.15792
 10
100.675948
 20
34.15792
 10
100.675948
 20
34.41192
 10
99.10114799999999
 20
34.41192
  0
LWPOLYLINE
  5
CB
100
AcDbEntity
  8
0
  6
ByLayer
 62
  256
370
   -1
100
AcDbPolyline
 90
    4
 70
    1
 43
0
 10
99.10114799999999
 20
33.658048
 10
100.675948
 20
33.658048
 10
100.675948
 20
33.912048
 10
99.10114799999999
 20
33.912048
  0
LWPOLYLINE
  5
CC
100
AcDbEntity
  8
0
  6
ByLayer
 62
  256
370
   -1
100
AcDbPolyline
 90
    4
 70
    1
 43
0
 10
99.10114799999999
 20
33.157922
 10
100.675948
 20
33.157922
 10
100.675948
 20
33.411922
 10
99.10114799999999
 20
33.411922
  0
LWPOLYLINE
  5
CD
100
AcDbEntity
  8
0
  6
ByLayer
 62
  256
370
   -1
100
AcDbPolyline
 90
    4
 70
    1
 43
0
 10
99.10114799999999
 20
30.658054
 10
100.675948
 20
30.658054
 10
100.675948
 20
30.912054
 10
99.10114799999999
 20
30.912054
  0
LWPOLYLINE
  5
CE
100
AcDbEntity
  8
0
  6
ByLayer
 62
  256
370
   -1
100
AcDbPolyline
 90
    4
 70
    1
 43
0
 10
99.10114799999999
 20
30.157928
 10
100.675948
 20
30.157928
 10
100.675948
 20
30.411928
 10
99.10114799999999
 20
30.411928
  0
LWPOLYLINE
  5
CF
100
AcDbEntity
  8
0
  6
ByLayer
 62
  256
370
   -1
100
AcDbPolyline
 90
    4
 70
    1
 43
0
 10
99.10114799999999
 20
29.658056
 10
100.675948
 20
29.658056
 10
100.675948
 20
29.912056
 10
99.10114799999999
 20
29.912056
  0
LWPOLYLINE
  5
D0
100
AcDbEntity
  8
0
  6
ByLayer
 62
  256
370
   -1
100
AcDbPolyline
 90
    4
 70
    1
 43
0
 10
99.10114799999999
 20
29.15793
 10
100.675948
 20
29.15793
 10
100.675948
 20
29.41193
 10
99.10114799999999
 20
29.41193
  0
LWPOLYLINE
  5
D1
100
AcDbEntity
  8
0
  6
ByLayer
 62
  256
370
   -1
100
AcDbPolyline
 90
    4
 70
    1
 43
0
 10
99.10114799999999
 20
28.658058
 10
100.675948
 20
28.658058
 10
100.675948
 20
28.912058
 10
99.10114799999999
 20
28.912058
  0
LWPOLYLINE
  5
D2
100
AcDbEntity
  8
0
  6
ByLayer
 62
  256
370
   -1
100
AcDbPolyline
 90
    4
 70
    1
 43
0
 10
99.10114799999999
 20
28.157932
 10
100.675948
 20
28.157932
 10
100.675948
 20
28.411932
 10
99.10114799999999
 20
28.411932
  0
LWPOLYLINE
  5
D3
100
AcDbEntity
  8
0
  6
ByLayer
 62
  256
370
   -1
100
AcDbPolyline
 90
    4
 70
    1
 43
0
 10
99.10114799999999
 20
27.65806
 10
100.675948
 20
27.65806
 10
100.675948
 20
27.91206
 10
99.10114799999999
 20
27.91206
  0
LWPOLYLINE
  5
D4
100
AcDbEntity
  8
0
  6
ByLayer
 62
  256
370
   -1
100
AcDbPolyline
 90
    4
 70
    1
 43
0
 10
99.10114799999999
 20
27.157934
 10
100.675948
 20
27.157934
 10
100.675948
 20
27.411934
 10
99.10114799999999
 20
27.411934
  0
LWPOLYLINE
  5
D5
100
AcDbEntity
  8
0
  6
ByLayer
 62
  256
370
   -1
100
AcDbPolyline
 90
    4
 70
    1
 43
0
 10
99.10114799999999
 20
26.658062
 10
100.675948
 20
26.658062
 10
100.675948
 20
26.912062
 10
99.10114799999999
 20
26.912062
  0
LWPOLYLINE
  5
D6
100
AcDbEntity
  8
0
  6
ByLayer
 62
  256
370
   -1
100
AcDbPolyline
 90
    4
 70
    1
 43
0
 10
99.10114799999999
 20
26.157936
 10
100.675948
 20
26.157936
 10
100.675948
 20
26.411936
 10
99.10114799999999
 20
26.411936
  0
LWPOLYLINE
  5
D7
100
AcDbEntity
  8
0
  6
ByLayer
 62
  256
370
   -1
100
AcDbPolyline
 90
    4
 70
    1
 43
0
 10
99.10114799999999
 20
25.658064
 10
100.675948
 20
25.658064
 10
100.675948
 20
25.912064
 10
99.10114799999999
 20
25.912064
  0
LWPOLYLINE
  5
D8
100
AcDbEntity
  8
0
  6
ByLayer
 62
  256
370
   -1
100
AcDbPolyline
 90
    4
 70
    1
 43
0
 10
99.10114799999999
 20
25.157938
 10
100.675948
 20
25.157938
 10
100.675948
 20
25.411938
 10
99.10114799999999
 20
25.411938
  0
LWPOLYLINE
  5
D9
100
AcDbEntity
  8
0
  6
ByLayer
 62
  256
370
   -1
100
AcDbPolyline
 90
    4
 70
    1
 43
0
 10
99.10114799999999
 20
24.658066
 10
100.675948
 20
24.658066
 10
100.675948
 20
24.912066
 10
99.10114799999999
 20
24.912066
  0
LWPOLYLINE
  5
DA
100
AcDbEntity
  8
0
  6
ByLayer
 62
  256
370
   -1
100
AcDbPolyline
 90
    4
 70
    1
 43
0
 10
99.10114799999999
 20
24.15794
 10
100.675948
 20
24.15794
 10
100.675948
 20
24.41194
 10
99.10114799999999
 20
24.41194
  0
LWPOLYLINE
  5
DB
100
AcDbEntity
  8
0
  6
ByLayer
 62
  256
370
   -1
100
AcDbPolyline
 90
    4
 70
    1
 43
0
 10
99.10114799999999
 20
23.658068
 10
100.675948
 20
23.658068
 10
100.675948
 20
23.912068
 10
99.10114799999999
 20
23.912068
  0
LWPOLYLINE
  5
DC
100
AcDbEntity
  8
0
  6
ByLayer
 62
  256
370
   -1
100
AcDbPolyline
 90
    4
 70
    1
 43
0
 10
99.10114799999999
 20
23.157942
 10
100.675948
 20
23.157942
 10
100.675948
 20
23.411942
 10
99.10114799999999
 20
23.411942
  0
LWPOLYLINE
  5
DD
100
AcDbEntity
  8
0
  6
ByLayer
 62
  256
370
   -1
100
AcDbPolyline
 90
    4
 70
    1
 43
0
 10
99.10114799999999
 20
22.65807
 10
100.675948
 20
22.65807
 10
100.675948
 20
22.91207
 10
99.10114799999999
 20
22.91207
  0
LWPOLYLINE
  5
DE
100
AcDbEntity
  8
0
  6
ByLayer
 62
  256
370
   -1
100
AcDbPolyline
 90
    4
 70
    1
 43
0
 10
99.10114799999999
 20
22.157944
 10
100.675948
 20
22.157944
 10
100.675948
 20
22.411944
 10
99.10114799999999
 20
22.411944
  0
LWPOLYLINE
  5
DF
100
AcDbEntity
  8
0
  6
ByLayer
 62
  256
370
   -1
100
AcDbPolyline
 90
    4
 70
    1
 43
0
 10
99.10114799999999
 20
21.658072
 10
100.675948
 20
21.658072
 10
100.675948
 20
21.912072
 10
99.10114799999999
 20
21.912072
  0
LWPOLYLINE
  5
E0
100
AcDbEntity
  8
0
  6
ByLayer
 62
  256
370
   -1
100
AcDbPolyline
 90
    4
 70
    1
 43
0
 10
99.10114799999999
 20
21.157946
 10
100.675948
 20
21.157946
 10
100.675948
 20
21.411946
 10
99.10114799999999
 20
21.411946
  0
LWPOLYLINE
  5
E1
100
AcDbEntity
  8
0
  6
ByLayer
 62
  256
370
   -1
100
AcDbPolyline
 90
    4
 70
    1
 43
0
 10
99.10114799999999
 20
20.658074
 10
100.675948
 20
20.658074
 10
100.675948
 20
20.912074
 10
99.10114799999999
 20
20.912074
  0
LWPOLYLINE
  5
E2
100
AcDbEntity
  8
0
  6
ByLayer
 62
  256
370
   -1
100
AcDbPolyline
 90
    4
 70
    1
 43
0
 10
99.10114799999999
 20
20.157948
 10
100.675948
 20
20.157948
 10
100.675948
 20
20.411948
 10
99.10114799999999
 20
20.411948
  0
LWPOLYLINE
  5
E3
100
AcDbEntity
  8
0
  6
ByLayer
 62
  256
370
   -1
100
AcDbPolyline
 90
    4
 70
    1
 43
0
 10
99.10114799999999
 20
19.658076
 10
100.675948
 20
19.658076
 10
100.675948
 20
19.912076
 10
99.10114799999999
 20
19.912076
  0
LWPOLYLINE
  5
E4
100
AcDbEntity
  8
0
  6
ByLayer
 62
  256
370
   -1
100
AcDbPolyline
 90
    4
 70
    1
 43
0
 10
99.10114799999999
 20
19.15795
 10
100.675948
 20
19.15795
 10
100.675948
 20
19.41195
 10
99.10114799999999
 20
19.41195
  0
LWPOLYLINE
  5
E5
100
AcDbEntity
  8
0
  6
ByLayer
 62
  256
370
   -1
100
AcDbPolyline
 90
    4
 70
    1
 43
0
 10
99.10114799999999
 20
18.658078
 10
100.675948
 20
18.658078
 10
100.675948
 20
18.912078
 10
99.10114799999999
 20
18.912078
  0
LWPOLYLINE
  5
E6
100
AcDbEntity
  8
0
  6
ByLayer
 62
  256
370
   -1
100
AcDbPolyline
 90
    4
 70
    1
 43
0
 10
99.10114799999999
 20
18.157952
 10
100.675948
 20
18.157952
 10
100.675948
 20
18.411952
 10
99.10114799999999
 20
18.411952
  0
LWPOLYLINE
  5
E7
100
AcDbEntity
  8
0
  6
ByLayer
 62
  256
370
   -1
100
AcDbPolyline
 90
    4
 70
    1
 43
0
 10
99.10114799999999
 20
17.65808
 10
100.675948
 20
17.65808
 10
100.675948
 20
17.91208
 10
99.10114799999999
 20
17.91208
  0
LWPOLYLINE
  5
E8
100
AcDbEntity
  8
0
  6
ByLayer
 62
  256
370
   -1
100
AcDbPolyline
 90
    4
 70
    1
 43
0
 10
99.10114799999999
 20
17.157954
 10
100.675948
 20
17.157954
 10
100.675948
 20
17.411954
 10
99.10114799999999
 20
17.411954
  0
LWPOLYLINE
  5
E9
100
AcDbEntity
  8
0
  6
ByLayer
 62
  256
370
   -1
100
AcDbPolyline
 90
    4
 70
    1
 43
0
 10
99.10114799999999
 20
16.658082
 10
100.675948
 20
16.658082
 10
100.675948
 20
16.912082
 10
99.10114799999999
 20
16.912082
  0
LWPOLYLINE
  5
EA
100
AcDbEntity
  8
PACKAGE_GEOMET_SILKSCREEN_BOTT
  6
ByLayer
 62
  256
370
   -1
100
AcDbPolyline
 90
    2
 70
    0
 43
0
 10
99.713542
 20
32.984948
 10
99.713542
 20
31.116016
  0
LWPOLYLINE
  5
EB
100
AcDbEntity
  8
PACKAGE_GEOMET_SILKSCREEN_BOTT
  6
ByLayer
 62
  256
370
   -1
100
AcDbPolyline
 90
    2
 70
    0
 43
0
 10
92.51365800000001
 20
33.234884
 10
92.51365800000001
 20
31.365952
  0
LWPOLYLINE
  5
EC
100
AcDbEntity
  8
PACKAGE_GEOMET_SILKSCREEN_BOTT
  6
ByLayer
 62
  256
370
   -1
100
AcDbPolyline
 90
    7
 70
    1
 43
0
 10
97.263712
 20
34.735008
 10
97.963482
 20
35.435032
 10
97.963482
 20
34.934906
 10
98.763582
 20
34.934906
 10
98.763582
 20
34.53511
 10
97.963482
 20
34.53511
 10
97.963482
 20
34.034984
  0
LWPOLYLINE
  5
ED
100
AcDbEntity
  8
PACKAGE_GEOMET_SILKSCREEN_BOTT
  6
ByLayer
 62
  256
370
   -1
100
AcDbPolyline
 90
    2
 70
    0
 43
0
 10
92.51365800000001
 20
36.98494
 10
92.51365800000001
 20
35.365944
  0
LWPOLYLINE
  5
EE
100
AcDbEntity
  8
PACKAGE_GEOMET_SILKSCREEN_BOTT
  6
ByLayer
 62
  256
370
   -1
100
AcDbPolyline
 90
    2
 70
    0
 43
0
 10
92.51365800000001
 20
15.08506
 10
92.51365800000001
 20
16.68145
  0
LWPOLYLINE
  5
EF
100
AcDbEntity
  8
PACKAGE_GEOMET_SILKSCREEN_BOTT
  6
ByLayer
 62
  256
370
   -1
100
AcDbPolyline
 90
    2
 70
    0
 43
0
 10
92.51365800000001
 20
36.98494
 10
97.5741
 20
36.98494
  0
LWPOLYLINE
  5
F0
100
AcDbEntity
  8
PACKAGE_GEOMET_SILKSCREEN_BOTT
  6
ByLayer
 62
  256
370
   -1
100
AcDbPolyline
 90
    2
 70
    0
 43
0
 10
92.51365800000001
 20
15.08506
 10
97.5741
 20
15.08506
  0
LWPOLYLINE
  5
F1
100
AcDbEntity
  8
0
  6
ByLayer
 62
  256
370
   -1
100
AcDbPolyline
 90
    4
 70
    1
 43
0
 10
7.663942
 20
78.32496399999999
 10
7.917942
 20
78.32496399999999
 10
7.917942
 20
79.594964
 10
7.663942
 20
79.594964
  0
LWPOLYLINE
  5
F2
100
AcDbEntity
  8
0
  6
ByLayer
 62
  256
370
   -1
100
AcDbPolyline
 90
    4
 70
    1
 43
0
 10
8.164068
 20
78.32496399999999
 10
8.418068
 20
78.32496399999999
 10
8.418068
 20
79.594964
 10
8.164068
 20
79.594964
  0
LWPOLYLINE
  5
F3
100
AcDbEntity
  8
0
  6
ByLayer
 62
  256
370
   -1
100
AcDbPolyline
 90
    4
 70
    1
 43
0
 10
8.66394
 20
78.32496399999999
 10
8.91794
 20
78.32496399999999
 10
8.91794
 20
79.594964
 10
8.66394
 20
79.594964
  0
LWPOLYLINE
  5
F4
100
AcDbEntity
  8
0
  6
ByLayer
 62
  256
370
   -1
100
AcDbPolyline
 90
    4
 70
    1
 43
0
 10
9.164066
 20
78.32496399999999
 10
9.418066
 20
78.32496399999999
 10
9.418066
 20
79.594964
 10
9.164066
 20
79.594964
  0
LWPOLYLINE
  5
F5
100
AcDbEntity
  8
0
  6
ByLayer
 62
  256
370
   -1
100
AcDbPolyline
 90
    4
 70
    1
 43
0
 10
9.663938
 20
78.32496399999999
 10
9.917937999999999
 20
78.32496399999999
 10
9.917937999999999
 20
79.594964
 10
9.663938
 20
79.594964
  0
LWPOLYLINE
  5
F6
100
AcDbEntity
  8
0
  6
ByLayer
 62
  256
370
   -1
100
AcDbPolyline
 90
    4
 70
    1
 43
0
 10
10.164064
 20
78.32496399999999
 10
10.418064
 20
78.32496399999999
 10
10.418064
 20
79.594964
 10
10.164064
 20
79.594964
  0
LWPOLYLINE
  5
F7
100
AcDbEntity
  8
0
  6
ByLayer
 62
  256
370
   -1
100
AcDbPolyline
 90
    4
 70
    1
 43
0
 10
10.663936
 20
78.32496399999999
 10
10.917936
 20
78.32496399999999
 10
10.917936
 20
79.594964
 10
10.663936
 20
79.594964
  0
LWPOLYLINE
  5
F8
100
AcDbEntity
  8
0
  6
ByLayer
 62
  256
370
   -1
100
AcDbPolyline
 90
    4
 70
    1
 43
0
 10
11.164062
 20
78.32496399999999
 10
11.418062
 20
78.32496399999999
 10
11.418062
 20
79.594964
 10
11.164062
 20
79.594964
  0
LWPOLYLINE
  5
F9
100
AcDbEntity
  8
0
  6
ByLayer
 62
  256
370
   -1
100
AcDbPolyline
 90
    4
 70
    1
 43
0
 10
11.663934
 20
78.32496399999999
 10
11.917934
 20
78.32496399999999
 10
11.917934
 20
79.594964
 10
11.663934
 20
79.594964
  0
LWPOLYLINE
  5
FA
100
AcDbEntity
  8
0
  6
ByLayer
 62
  256
370
   -1
100
AcDbPolyline
 90
    4
 70
    1
 43
0
 10
12.16406
 20
78.32496399999999
 10
12.41806
 20
78.32496399999999
 10
12.41806
 20
79.594964
 10
12.16406
 20
79.594964
  0
LWPOLYLINE
  5
FB
100
AcDbEntity
  8
0
  6
ByLayer
 62
  256
370
   -1
100
AcDbPolyline
 90
    4
 70
    1
 43
0
 10
12.663932
 20
78.32496399999999
 10
12.917932
 20
78.32496399999999
 10
12.917932
 20
79.594964
 10
12.663932
 20
79.594964
  0
LWPOLYLINE
  5
FC
100
AcDbEntity
  8
0
  6
ByLayer
 62
  256
370
   -1
100
AcDbPolyline
 90
    4
 70
    1
 43
0
 10
13.164058
 20
78.32496399999999
 10
13.418058
 20
78.32496399999999
 10
13.418058
 20
79.594964
 10
13.164058
 20
79.594964
  0
LWPOLYLINE
  5
FD
100
AcDbEntity
  8
0
  6
ByLayer
 62
  256
370
   -1
100
AcDbPolyline
 90
    4
 70
    1
 43
0
 10
14.131036
 20
80.307942
 10
15.401036
 20
80.307942
 10
15.401036
 20
80.561942
 10
14.131036
 20
80.561942
  0
LWPOLYLINE
  5
FE
100
AcDbEntity
  8
0
  6
ByLayer
 62
  256
370
   -1
100
AcDbPolyline
 90
    4
 70
    1
 43
0
 10
14.131036
 20
80.80806800000001
 10
15.401036
 20
80.80806800000001
 10
15.401036
 20
81.062068
 10
14.131036
 20
81.062068
  0
LWPOLYLINE
  5
FF
100
AcDbEntity
  8
0
  6
ByLayer
 62
  256
370
   -1
100
AcDbPolyline
 90
    4
 70
    1
 43
0
 10
14.131036
 20
81.30794
 10
15.401036
 20
81.30794
 10
15.401036
 20
81.56194000000001
 10
14.131036
 20
81.56194000000001
  0
LWPOLYLINE
  5
100
100
AcDbEntity
  8
0
  6
ByLayer
 62
  256
370
   -1
100
AcDbPolyline
 90
    4
 70
    1
 43
0
 10
14.131036
 20
81.808066
 10
15.401036
 20
81.808066
 10
15.401036
 20
82.062066
 10
14.131036
 20
82.062066
  0
LWPOLYLINE
  5
101
100
AcDbEntity
  8
0
  6
ByLayer
 62
  256
370
   -1
100
AcDbPolyline
 90
    4
 70
    1
 43
0
 10
14.131036
 20
82.30793799999999
 10
15.401036
 20
82.30793799999999
 10
15.401036
 20
82.561938
 10
14.131036
 20
82.561938
  0
LWPOLYLINE
  5
102
100
AcDbEntity
  8
0
  6
ByLayer
 62
  256
370
   -1
100
AcDbPolyline
 90
    4
 70
    1
 43
0
 10
14.131036
 20
82.808064
 10
15.401036
 20
82.808064
 10
15.401036
 20
83.06206400000001
 10
14.131036
 20
83.06206400000001
  0
LWPOLYLINE
  5
103
100
AcDbEntity
  8
0
  6
ByLayer
 62
  256
370
   -1
100
AcDbPolyline
 90
    4
 70
    1
 43
0
 10
14.131036
 20
83.307936
 10
15.401036
 20
83.307936
 10
15.401036
 20
83.561936
 10
14.131036
 20
83.561936
  0
LWPOLYLINE
  5
104
100
AcDbEntity
  8
0
  6
ByLayer
 62
  256
370
   -1
100
AcDbPolyline
 90
    4
 70
    1
 43
0
 10
14.131036
 20
83.80806200000001
 10
15.401036
 20
83.80806200000001
 10
15.401036
 20
84.062062
 10
14.131036
 20
84.062062
  0
LWPOLYLINE
  5
105
100
AcDbEntity
  8
0
  6
ByLayer
 62
  256
370
   -1
100
AcDbPolyline
 90
    4
 70
    1
 43
0
 10
14.131036
 20
84.307934
 10
15.401036
 20
84.307934
 10
15.401036
 20
84.56193399999999
 10
14.131036
 20
84.56193399999999
  0
LWPOLYLINE
  5
106
100
AcDbEntity
  8
0
  6
ByLayer
 62
  256
370
   -1
100
AcDbPolyline
 90
    4
 70
    1
 43
0
 10
14.131036
 20
84.80806
 10
15.401036
 20
84.80806
 10
15.401036
 20
85.06206
 10
14.131036
 20
85.06206
  0
LWPOLYLINE
  5
107
100
AcDbEntity
  8
0
  6
ByLayer
 62
  256
370
   -1
100
AcDbPolyline
 90
    4
 70
    1
 43
0
 10
14.131036
 20
85.30793199999999
 10
15.401036
 20
85.30793199999999
 10
15.401036
 20
85.561932
 10
14.131036
 20
85.561932
  0
LWPOLYLINE
  5
108
100
AcDbEntity
  8
0
  6
ByLayer
 62
  256
370
   -1
100
AcDbPolyline
 90
    4
 70
    1
 43
0
 10
14.131036
 20
85.808058
 10
15.401036
 20
85.808058
 10
15.401036
 20
86.06205799999999
 10
14.131036
 20
86.06205799999999
  0
LWPOLYLINE
  5
109
100
AcDbEntity
  8
0
  6
ByLayer
 62
  256
370
   -1
100
AcDbPolyline
 90
    4
 70
    1
 43
0
 10
13.164058
 20
86.775036
 10
13.418058
 20
86.775036
 10
13.418058
 20
88.045036
 10
13.164058
 20
88.045036
  0
LWPOLYLINE
  5
10A
100
AcDbEntity
  8
0
  6
ByLayer
 62
  256
370
   -1
100
AcDbPolyline
 90
    4
 70
    1
 43
0
 10
12.663932
 20
86.775036
 10
12.917932
 20
86.775036
 10
12.917932
 20
88.045036
 10
12.663932
 20
88.045036
  0
LWPOLYLINE
  5
10B
100
AcDbEntity
  8
0
  6
ByLayer
 62
  256
370
   -1
100
AcDbPolyline
 90
    4
 70
    1
 43
0
 10
12.16406
 20
86.775036
 10
12.41806
 20
86.775036
 10
12.41806
 20
88.045036
 10
12.16406
 20
88.045036
  0
LWPOLYLINE
  5
10C
100
AcDbEntity
  8
0
  6
ByLayer
 62
  256
370
   -1
100
AcDbPolyline
 90
    4
 70
    1
 43
0
 10
11.663934
 20
86.775036
 10
11.917934
 20
86.775036
 10
11.917934
 20
88.045036
 10
11.663934
 20
88.045036
  0
LWPOLYLINE
  5
10D
100
AcDbEntity
  8
0
  6
ByLayer
 62
  256
370
   -1
100
AcDbPolyline
 90
    4
 70
    1
 43
0
 10
11.164062
 20
86.775036
 10
11.418062
 20
86.775036
 10
11.418062
 20
88.045036
 10
11.164062
 20
88.045036
  0
LWPOLYLINE
  5
10E
100
AcDbEntity
  8
0
  6
ByLayer
 62
  256
370
   -1
100
AcDbPolyline
 90
    4
 70
    1
 43
0
 10
10.663936
 20
86.775036
 10
10.917936
 20
86.775036
 10
10.917936
 20
88.045036
 10
10.663936
 20
88.045036
  0
LWPOLYLINE
  5
10F
100
AcDbEntity
  8
0
  6
ByLayer
 62
  256
370
   -1
100
AcDbPolyline
 90
    4
 70
    1
 43
0
 10
10.164064
 20
86.775036
 10
10.418064
 20
86.775036
 10
10.418064
 20
88.045036
 10
10.164064
 20
88.045036
  0
LWPOLYLINE
  5
110
100
AcDbEntity
  8
0
  6
ByLayer
 62
  256
370
   -1
100
AcDbPolyline
 90
    4
 70
    1
 43
0
 10
9.663938
 20
86.775036
 10
9.917937999999999
 20
86.775036
 10
9.917937999999999
 20
88.045036
 10
9.663938
 20
88.045036
  0
LWPOLYLINE
  5
111
100
AcDbEntity
  8
0
  6
ByLayer
 62
  256
370
   -1
100
AcDbPolyline
 90
    4
 70
    1
 43
0
 10
9.164066
 20
86.775036
 10
9.418066
 20
86.775036
 10
9.418066
 20
88.045036
 10
9.164066
 20
88.045036
  0
LWPOLYLINE
  5
112
100
AcDbEntity
  8
0
  6
ByLayer
 62
  256
370
   -1
100
AcDbPolyline
 90
    4
 70
    1
 43
0
 10
8.66394
 20
86.775036
 10
8.91794
 20
86.775036
 10
8.91794
 20
88.045036
 10
8.66394
 20
88.045036
  0
LWPOLYLINE
  5
113
100
AcDbEntity
  8
0
  6
ByLayer
 62
  256
370
   -1
100
AcDbPolyline
 90
    4
 70
    1
 43
0
 10
8.164068
 20
86.775036
 10
8.418068
 20
86.775036
 10
8.418068
 20
88.045036
 10
8.164068
 20
88.045036
  0
LWPOLYLINE
  5
114
100
AcDbEntity
  8
0
  6
ByLayer
 62
  256
370
   -1
100
AcDbPolyline
 90
    4
 70
    1
 43
0
 10
7.663942
 20
86.775036
 10
7.917942
 20
86.775036
 10
7.917942
 20
88.045036
 10
7.663942
 20
88.045036
  0
LWPOLYLINE
  5
115
100
AcDbEntity
  8
0
  6
ByLayer
 62
  256
370
   -1
100
AcDbPolyline
 90
    4
 70
    1
 43
0
 10
5.680964
 20
85.808058
 10
6.950964
 20
85.808058
 10
6.950964
 20
86.06205799999999
 10
5.680964
 20
86.06205799999999
  0
LWPOLYLINE
  5
116
100
AcDbEntity
  8
0
  6
ByLayer
 62
  256
370
   -1
100
AcDbPolyline
 90
    4
 70
    1
 43
0
 10
5.680964
 20
85.30793199999999
 10
6.950964
 20
85.30793199999999
 10
6.950964
 20
85.561932
 10
5.680964
 20
85.561932
  0
LWPOLYLINE
  5
117
100
AcDbEntity
  8
0
  6
ByLayer
 62
  256
370
   -1
100
AcDbPolyline
 90
    4
 70
    1
 43
0
 10
5.680964
 20
84.80806
 10
6.950964
 20
84.80806
 10
6.950964
 20
85.06206
 10
5.680964
 20
85.06206
  0
LWPOLYLINE
  5
118
100
AcDbEntity
  8
0
  6
ByLayer
 62
  256
370
   -1
100
AcDbPolyline
 90
    4
 70
    1
 43
0
 10
5.680964
 20
84.307934
 10
6.950964
 20
84.307934
 10
6.950964
 20
84.56193399999999
 10
5.680964
 20
84.56193399999999
  0
LWPOLYLINE
  5
119
100
AcDbEntity
  8
0
  6
ByLayer
 62
  256
370
   -1
100
AcDbPolyline
 90
    4
 70
    1
 43
0
 10
5.680964
 20
83.80806200000001
 10
6.950964
 20
83.80806200000001
 10
6.950964
 20
84.062062
 10
5.680964
 20
84.062062
  0
LWPOLYLINE
  5
11A
100
AcDbEntity
  8
0
  6
ByLayer
 62
  256
370
   -1
100
AcDbPolyline
 90
    4
 70
    1
 43
0
 10
5.680964
 20
83.307936
 10
6.950964
 20
83.307936
 10
6.950964
 20
83.561936
 10
5.680964
 20
83.561936
  0
LWPOLYLINE
  5
11B
100
AcDbEntity
  8
0
  6
ByLayer
 62
  256
370
   -1
100
AcDbPolyline
 90
    4
 70
    1
 43
0
 10
5.680964
 20
82.808064
 10
6.950964
 20
82.808064
 10
6.950964
 20
83.06206400000001
 10
5.680964
 20
83.06206400000001
  0
LWPOLYLINE
  5
11C
100
AcDbEntity
  8
0
  6
ByLayer
 62
  256
370
   -1
100
AcDbPolyline
 90
    4
 70
    1
 43
0
 10
5.680964
 20
82.30793799999999
 10
6.950964
 20
82.30793799999999
 10
6.950964
 20
82.561938
 10
5.680964
 20
82.561938
  0
LWPOLYLINE
  5
11D
100
AcDbEntity
  8
0
  6
ByLayer
 62
  256
370
   -1
100
AcDbPolyline
 90
    4
 70
    1
 43
0
 10
5.680964
 20
81.808066
 10
6.950964
 20
81.808066
 10
6.950964
 20
82.062066
 10
5.680964
 20
82.062066
  0
LWPOLYLINE
  5
11E
100
AcDbEntity
  8
0
  6
ByLayer
 62
  256
370
   -1
100
AcDbPolyline
 90
    4
 70
    1
 43
0
 10
5.680964
 20
81.30794
 10
6.950964
 20
81.30794
 10
6.950964
 20
81.56194000000001
 10
5.680964
 20
81.56194000000001
  0
LWPOLYLINE
  5
11F
100
AcDbEntity
  8
0
  6
ByLayer
 62
  256
370
   -1
100
AcDbPolyline
 90
    4
 70
    1
 43
0
 10
5.680964
 20
80.80806800000001
 10
6.950964
 20
80.80806800000001
 10
6.950964
 20
81.062068
 10
5.680964
 20
81.062068
  0
LWPOLYLINE
  5
120
100
AcDbEntity
  8
0
  6
ByLayer
 62
  256
370
   -1
100
AcDbPolyline
 90
    4
 70
    1
 43
0
 10
5.680964
 20
80.307942
 10
6.950964
 20
80.307942
 10
6.950964
 20
80.561942
 10
5.680964
 20
80.561942
  0
LWPOLYLINE
  5
121
100
AcDbEntity
  8
0
  6
ByLayer
 62
  256
370
   -1
100
AcDbPolyline
 90
    4
 70
    1
 43
0
 10
70.76439999999999
 20
19.115024
 10
70.76439999999999
 20
15.863824
 10
71.4756
 20
15.863824
 10
71.4756
 20
19.115024
  0
LWPOLYLINE
  5
122
100
AcDbEntity
  8
0
  6
ByLayer
 62
  256
370
   -1
100
AcDbPolyline
 90
    4
 70
    1
 43
0
 10
69.4944
 20
27.316176
 10
69.4944
 20
24.064976
 10
70.2056
 20
24.064976
 10
70.2056
 20
27.316176
  0
LWPOLYLINE
  5
123
100
AcDbEntity
  8
0
  6
ByLayer
 62
  256
370
   -1
100
AcDbPolyline
 90
    4
 70
    1
 43
0
 10
68.2244
 20
27.316176
 10
68.2244
 20
24.064976
 10
68.93559999999999
 20
24.064976
 10
68.93559999999999
 20
27.316176
  0
LWPOLYLINE
  5
124
100
AcDbEntity
  8
0
  6
ByLayer
 62
  256
370
   -1
100
AcDbPolyline
 90
    4
 70
    1
 43
0
 10
72.03440000000001
 20
19.115024
 10
72.03440000000001
 20
15.863824
 10
72.7456
 20
15.863824
 10
72.7456
 20
19.115024
  0
LWPOLYLINE
  5
125
100
AcDbEntity
  8
0
  6
ByLayer
 62
  256
370
   -1
100
AcDbPolyline
 90
    4
 70
    1
 43
0
 10
72.03440000000001
 20
27.316176
 10
72.03440000000001
 20
24.064976
 10
72.7456
 20
24.064976
 10
72.7456
 20
27.316176
  0
LWPOLYLINE
  5
126
100
AcDbEntity
  8
0
  6
ByLayer
 62
  256
370
   -1
100
AcDbPolyline
 90
    4
 70
    1
 43
0
 10
70.76439999999999
 20
27.316176
 10
70.76439999999999
 20
24.064976
 10
71.4756
 20
24.064976
 10
71.4756
 20
27.316176
  0
LWPOLYLINE
  5
127
100
AcDbEntity
  8
0
  6
ByLayer
 62
  256
370
   -1
100
AcDbPolyline
 90
    4
 70
    1
 43
0
 10
69.4944
 20
19.115024
 10
69.4944
 20
15.863824
 10
70.2056
 20
15.863824
 10
70.2056
 20
19.115024
  0
LWPOLYLINE
  5
128
100
AcDbEntity
  8
0
  6
ByLayer
 62
  256
370
   -1
100
AcDbPolyline
 90
    4
 70
    1
 43
0
 10
68.2244
 20
19.115024
 10
68.2244
 20
15.863824
 10
68.93559999999999
 20
15.863824
 10
68.93559999999999
 20
19.115024
  0
LWPOLYLINE
  5
129
100
AcDbEntity
  8
PACKAGE_GEOMET_SILKSCREEN_BOTT
  6
ByLayer
 62
  256
370
   -1
100
AcDbPolyline
 90
   20
 70
    1
 43
0
 10
66.68516
 20
16.41094
 10
67.48526
 20
16.41094
 10
67.48526
 20
15.89024
 10
73.48474
 20
15.89024
 10
73.48474
 20
16.41094
 10
74.28484
 20
16.41094
 10
74.28484
 20
19.04492
 10
75.08494
 20
20.25904
 10
75.08494
 20
22.92096
 10
74.28484
 20
24.13508
 10
74.28484
 20
26.76906
 10
73.48474
 20
26.76906
 10
73.48474
 20
27.28976
 10
67.48526
 20
27.28976
 10
67.48526
 20
26.76906
 10
66.68516
 20
26.76906
 10
66.68516
 20
24.13508
 10
65.88506
 20
22.92096
 10
65.88506
 20
20.25904
 10
66.68516
 20
19.04492
  0
CIRCLE
  5
12A
100
AcDbEntity
  8
0
  6
ByLayer
 62
  256
370
   -1
100
AcDbCircle
 10
85.852
 20
30.099
 40
0.250063
  0
CIRCLE
  5
12B
100
AcDbEntity
  8
0
  6
ByLayer
 62
  256
370
   -1
100
AcDbCircle
 10
100.33
 20
-10.899902
 40
0.762
  0
CIRCLE
  5
12C
100
AcDbEntity
  8
0
  6
ByLayer
 62
  256
370
   -1
100
AcDbCircle
 10
95.25
 20
-10.899902
 40
0.762
  0
CIRCLE
  5
12D
100
AcDbEntity
  8
0
  6
ByLayer
 62
  256
370
   -1
100
AcDbCircle
 10
97.79000000000001
 20
-8.499855999999999
 40
0.762
  0
CIRCLE
  5
12E
100
AcDbEntity
  8
0
  6
ByLayer
 62
  256
370
   -1
100
AcDbCircle
 10
91.745054
 20
-2.996946
 40
1.4097
  0
CIRCLE
  5
12F
100
AcDbEntity
  8
0
  6
ByLayer
 62
  256
370
   -1
100
AcDbCircle
 10
103.834946
 20
-2.996946
 40
1.4097
  0
CIRCLE
  5
130
100
AcDbEntity
  8
0
  6
ByLayer
 62
  256
370
   -1
100
AcDbCircle
 10
91.745054
 20
-14.299946
 40
1.4097
  0
CIRCLE
  5
131
100
AcDbEntity
  8
0
  6
ByLayer
 62
  256
370
   -1
100
AcDbCircle
 10
103.834946
 20
-14.299946
 40
1.4097
  0
CIRCLE
  5
132
100
AcDbEntity
  8
0
  6
ByLayer
 62
  256
370
   -1
100
AcDbCircle
 10
94.05594600000001
 20
-0.498094
 40
0.762
  0
CIRCLE
  5
133
100
AcDbEntity
  8
0
  6
ByLayer
 62
  256
370
   -1
100
AcDbCircle
 10
96.544892
 20
-0.498094
 40
0.762
  0
CIRCLE
  5
134
100
AcDbEntity
  8
0
  6
ByLayer
 62
  256
370
   -1
100
AcDbCircle
 10
99.03510799999999
 20
-0.498094
 40
0.762
  0
CIRCLE
  5
135
100
AcDbEntity
  8
0
  6
ByLayer
 62
  256
370
   -1
100
AcDbCircle
 10
101.524054
 20
-0.498094
 40
0.762
  0
CIRCLE
  5
136
100
AcDbEntity
  8
0
  6
ByLayer
 62
  256
370
   -1
100
AcDbCircle
 10
94.05594600000001
 20
-5.491988
 40
0.762
  0
CIRCLE
  5
137
100
AcDbEntity
  8
0
  6
ByLayer
 62
  256
370
   -1
100
AcDbCircle
 10
96.544892
 20
-5.491988
 40
0.762
  0
CIRCLE
  5
138
100
AcDbEntity
  8
0
  6
ByLayer
 62
  256
370
   -1
100
AcDbCircle
 10
99.03510799999999
 20
-5.491988
 40
0.762
  0
CIRCLE
  5
139
100
AcDbEntity
  8
0
  6
ByLayer
 62
  256
370
   -1
100
AcDbCircle
 10
101.524054
 20
-5.491988
 40
0.762
  0
CIRCLE
  5
13A
100
AcDbEntity
  8
0
  6
ByLayer
 62
  256
370
   -1
100
AcDbCircle
 10
97.79000000000001
 20
-10.899902
 40
0.762
  0
CIRCLE
  5
13B
100
AcDbEntity
  8
0
  6
ByLayer
 62
  256
370
   -1
100
AcDbCircle
 10
-1.27
 20
83.2612
 40
0.762
  0
CIRCLE
  5
13C
100
AcDbEntity
  8
0
  6
ByLayer
 62
  256
370
   -1
100
AcDbCircle
 10
1.27
 20
83.2612
 40
0.762
  0
CIRCLE
  5
13D
100
AcDbEntity
  8
0
  6
ByLayer
 62
  256
370
   -1
100
AcDbCircle
 10
-1.27
 20
80.7212
 40
0.762
  0
CIRCLE
  5
13E
100
AcDbEntity
  8
0
  6
ByLayer
 62
  256
370
   -1
100
AcDbCircle
 10
1.27
 20
80.7212
 40
0.762
  0
CIRCLE
  5
13F
100
AcDbEntity
  8
0
  6
ByLayer
 62
  256
370
   -1
100
AcDbCircle
 10
-1.27
 20
78.1812
 40
0.762
  0
CIRCLE
  5
140
100
AcDbEntity
  8
0
  6
ByLayer
 62
  256
370
   -1
100
AcDbCircle
 10
1.27
 20
78.1812
 40
0.762
  0
CIRCLE
  5
141
100
AcDbEntity
  8
0
  6
ByLayer
 62
  256
370
   -1
100
AcDbCircle
 10
-1.27
 20
75.6412
 40
0.762
  0
CIRCLE
  5
142
100
AcDbEntity
  8
0
  6
ByLayer
 62
  256
370
   -1
100
AcDbCircle
 10
1.27
 20
75.6412
 40
0.762
  0
CIRCLE
  5
143
100
AcDbEntity
  8
0
  6
ByLayer
 62
  256
370
   -1
100
AcDbCircle
 10
-1.27
 20
73.10120000000001
 40
0.762
  0
CIRCLE
  5
144
100
AcDbEntity
  8
0
  6
ByLayer
 62
  256
370
   -1
100
AcDbCircle
 10
1.27
 20
73.10120000000001
 40
0.762
  0
CIRCLE
  5
145
100
AcDbEntity
  8
0
  6
ByLayer
 62
  256
370
   -1
100
AcDbCircle
 10
-1.27
 20
70.5612
 40
0.762
  0
CIRCLE
  5
146
100
AcDbEntity
  8
0
  6
ByLayer
 62
  256
370
   -1
100
AcDbCircle
 10
1.27
 20
70.5612
 40
0.762
  0
CIRCLE
  5
147
100
AcDbEntity
  8
0
  6
ByLayer
 62
  256
370
   -1
100
AcDbCircle
 10
-1.27
 20
68.02119999999999
 40
0.762
  0
CIRCLE
  5
148
100
AcDbEntity
  8
0
  6
ByLayer
 62
  256
370
   -1
100
AcDbCircle
 10
1.27
 20
68.02119999999999
 40
0.762
  0
CIRCLE
  5
149
100
AcDbEntity
  8
0
  6
ByLayer
 62
  256
370
   -1
100
AcDbCircle
 10
-1.27
 20
65.4812
 40
0.762
  0
CIRCLE
  5
14A
100
AcDbEntity
  8
0
  6
ByLayer
 62
  256
370
   -1
100
AcDbCircle
 10
1.27
 20
65.4812
 40
0.762
  0
CIRCLE
  5
14B
100
AcDbEntity
  8
0
  6
ByLayer
 62
  256
370
   -1
100
AcDbCircle
 10
-1.27
 20
62.9412
 40
0.762
  0
CIRCLE
  5
14C
100
AcDbEntity
  8
0
  6
ByLayer
 62
  256
370
   -1
100
AcDbCircle
 10
1.27
 20
62.9412
 40
0.762
  0
CIRCLE
  5
14D
100
AcDbEntity
  8
0
  6
ByLayer
 62
  256
370
   -1
100
AcDbCircle
 10
-1.27
 20
60.4012
 40
0.762
  0
LWPOLYLINE
  5
14E
100
AcDbEntity
  8
0
  6
ByLayer
 62
  256
370
   -1
100
AcDbPolyline
 90
    4
 70
    1
 43
0
 10
2.032
 20
59.6392
 10
0.508
 20
59.6392
 10
0.508
 20
61.1632
 10
2.032
 20
61.1632
  0
CIRCLE
  5
14F
100
AcDbEntity
  8
0
  6
ByLayer
 62
  256
370
   -1
100
AcDbCircle
 10
80.645
 20
-10.07491
 40
1.27
  0
CIRCLE
  5
150
100
AcDbEntity
  8
0
  6
ByLayer
 62
  256
370
   -1
100
AcDbCircle
 10
66.645028
 20
-10.07491
 40
1.27
  0
LWPOLYLINE
  5
151
100
AcDbEntity
  8
0
  6
ByLayer
 62
  256
370
   -1
100
AcDbPolyline
 90
    4
 70
    1
 43
0
 10
82.905473
 20
-13.716635
 10
82.905473
 20
-14.833473
 42
-0.9999999999999999
 10
81.584419
 20
-14.833473
 10
81.584419
 20
-13.716635
 42
-0.9999999999999999
  0
LWPOLYLINE
  5
152
100
AcDbEntity
  8
0
  6
ByLayer
 62
  256
370
   -1
100
AcDbPolyline
 90
    4
 70
    1
 43
0
 10
66.40563299999999
 20
-13.716635
 10
66.40563299999999
 20
-14.833473
 42
-0.9999999999999999
 10
65.08457899999999
 20
-14.833473
 10
65.08457899999999
 20
-13.716635
 42
-0.9999999999999999
  0
LWPOLYLINE
  5
153
100
AcDbEntity
  8
0
  6
ByLayer
 62
  256
370
   -1
100
AcDbPolyline
 90
    4
 70
    1
 43
0
 10
82.90534599999999
 20
-1.5367
 10
82.90534599999999
 20
-3.2131
 42
-0.9999999999999999
 10
81.584546
 20
-3.2131
 10
81.584546
 20
-1.5367
 42
-0.9999999999999999
  0
LWPOLYLINE
  5
154
100
AcDbEntity
  8
0
  6
ByLayer
 62
  256
370
   -1
100
AcDbPolyline
 90
    4
 70
    1
 43
0
 10
66.405506
 20
-1.5367
 10
66.405506
 20
-3.2131
 42
-0.9999999999999999
 10
65.08470599999998
 20
-3.2131
 10
65.08470599999998
 20
-1.5367
 42
-0.9999999999999999
  0
CIRCLE
  5
155
100
AcDbEntity
  8
0
  6
ByLayer
 62
  256
370
   -1
100
AcDbCircle
 10
69.494908
 20
-10.07491
 40
0.508
  0
CIRCLE
  5
156
100
AcDbEntity
  8
0
  6
ByLayer
 62
  256
370
   -1
100
AcDbCircle
 10
70.99503199999999
 20
-10.07491
 40
0.508
  0
CIRCLE
  5
157
100
AcDbEntity
  8
0
  6
ByLayer
 62
  256
370
   -1
100
AcDbCircle
 10
72.494902
 20
-10.07491
 40
0.508
  0
CIRCLE
  5
158
100
AcDbEntity
  8
0
  6
ByLayer
 62
  256
370
   -1
100
AcDbCircle
 10
73.995026
 20
-10.07491
 40
0.508
  0
CIRCLE
  5
159
100
AcDbEntity
  8
0
  6
ByLayer
 62
  256
370
   -1
100
AcDbCircle
 10
75.494896
 20
-10.07491
 40
0.508
  0
CIRCLE
  5
15A
100
AcDbEntity
  8
0
  6
ByLayer
 62
  256
370
   -1
100
AcDbCircle
 10
76.99502
 20
-10.07491
 40
0.508
  0
CIRCLE
  5
15B
100
AcDbEntity
  8
0
  6
ByLayer
 62
  256
370
   -1
100
AcDbCircle
 10
70.24497
 20
-8.57504
 40
0.508
  0
CIRCLE
  5
15C
100
AcDbEntity
  8
0
  6
ByLayer
 62
  256
370
   -1
100
AcDbCircle
 10
71.74509399999999
 20
-8.57504
 40
0.508
  0
CIRCLE
  5
15D
100
AcDbEntity
  8
0
  6
ByLayer
 62
  256
370
   -1
100
AcDbCircle
 10
73.244964
 20
-8.57504
 40
0.508
  0
CIRCLE
  5
15E
100
AcDbEntity
  8
0
  6
ByLayer
 62
  256
370
   -1
100
AcDbCircle
 10
74.745088
 20
-8.57504
 40
0.508
  0
CIRCLE
  5
15F
100
AcDbEntity
  8
0
  6
ByLayer
 62
  256
370
   -1
100
AcDbCircle
 10
76.244958
 20
-8.57504
 40
0.508
  0
CIRCLE
  5
160
100
AcDbEntity
  8
0
  6
ByLayer
 62
  256
370
   -1
100
AcDbCircle
 10
77.745082
 20
-8.57504
 40
0.508
  0
CIRCLE
  5
161
100
AcDbEntity
  8
0
  6
ByLayer
 62
  256
370
   -1
100
AcDbCircle
 10
69.494908
 20
-7.074916
 40
0.508
  0
CIRCLE
  5
162
100
AcDbEntity
  8
0
  6
ByLayer
 62
  256
370
   -1
100
AcDbCircle
 10
70.99503199999999
 20
-7.074916
 40
0.508
  0
CIRCLE
  5
163
100
AcDbEntity
  8
0
  6
ByLayer
 62
  256
370
   -1
100
AcDbCircle
 10
72.494902
 20
-7.074916
 40
0.508
  0
CIRCLE
  5
164
100
AcDbEntity
  8
0
  6
ByLayer
 62
  256
370
   -1
100
AcDbCircle
 10
73.995026
 20
-7.074916
 40
0.508
  0
CIRCLE
  5
165
100
AcDbEntity
  8
0
  6
ByLayer
 62
  256
370
   -1
100
AcDbCircle
 10
75.494896
 20
-7.074916
 40
0.508
  0
CIRCLE
  5
166
100
AcDbEntity
  8
0
  6
ByLayer
 62
  256
370
   -1
100
AcDbCircle
 10
76.99502
 20
-7.074916
 40
0.508
  0
CIRCLE
  5
167
100
AcDbEntity
  8
0
  6
ByLayer
 62
  256
370
   -1
100
AcDbCircle
 10
78.49489
 20
-7.074916
 40
0.508
  0
CIRCLE
  5
168
100
AcDbEntity
  8
0
  6
ByLayer
 62
  256
370
   -1
100
AcDbCircle
 10
67.345052
 20
-4.575048
 40
0.432054
  0
CIRCLE
  5
169
100
AcDbEntity
  8
0
  6
ByLayer
 62
  256
370
   -1
100
AcDbCircle
 10
68.74509999999999
 20
-4.575048
 40
0.432054
  0
CIRCLE
  5
16A
100
AcDbEntity
  8
0
  6
ByLayer
 62
  256
370
   -1
100
AcDbCircle
 10
70.14489399999999
 20
-4.575048
 40
0.432054
  0
CIRCLE
  5
16B
100
AcDbEntity
  8
0
  6
ByLayer
 62
  256
370
   -1
100
AcDbCircle
 10
71.54494200000001
 20
-4.575048
 40
0.432054
  0
CIRCLE
  5
16C
100
AcDbEntity
  8
0
  6
ByLayer
 62
  256
370
   -1
100
AcDbCircle
 10
72.94499
 20
-4.575048
 40
0.432054
  0
CIRCLE
  5
16D
100
AcDbEntity
  8
0
  6
ByLayer
 62
  256
370
   -1
100
AcDbCircle
 10
74.345038
 20
-4.575048
 40
0.432054
  0
CIRCLE
  5
16E
100
AcDbEntity
  8
0
  6
ByLayer
 62
  256
370
   -1
100
AcDbCircle
 10
75.745086
 20
-4.575048
 40
0.432054
  0
CIRCLE
  5
16F
100
AcDbEntity
  8
0
  6
ByLayer
 62
  256
370
   -1
100
AcDbCircle
 10
77.14488
 20
-4.575048
 40
0.432054
  0
CIRCLE
  5
170
100
AcDbEntity
  8
0
  6
ByLayer
 62
  256
370
   -1
100
AcDbCircle
 10
78.544928
 20
-4.575048
 40
0.432054
  0
CIRCLE
  5
171
100
AcDbEntity
  8
0
  6
ByLayer
 62
  256
370
   -1
100
AcDbCircle
 10
79.944976
 20
-4.575048
 40
0.432054
  0
CIRCLE
  5
172
100
AcDbEntity
  8
0
  6
ByLayer
 62
  256
370
   -1
100
AcDbCircle
 10
68.04507599999999
 20
-3.175
 40
0.432054
  0
CIRCLE
  5
173
100
AcDbEntity
  8
0
  6
ByLayer
 62
  256
370
   -1
100
AcDbCircle
 10
69.44512400000001
 20
-3.175
 40
0.432054
  0
CIRCLE
  5
174
100
AcDbEntity
  8
0
  6
ByLayer
 62
  256
370
   -1
100
AcDbCircle
 10
70.84491800000001
 20
-3.175
 40
0.432054
  0
CIRCLE
  5
175
100
AcDbEntity
  8
0
  6
ByLayer
 62
  256
370
   -1
100
AcDbCircle
 10
72.24496600000001
 20
-3.175
 40
0.432054
  0
CIRCLE
  5
176
100
AcDbEntity
  8
0
  6
ByLayer
 62
  256
370
   -1
100
AcDbCircle
 10
73.645014
 20
-3.175
 40
0.432054
  0
CIRCLE
  5
177
100
AcDbEntity
  8
0
  6
ByLayer
 62
  256
370
   -1
100
AcDbCircle
 10
75.045062
 20
-3.175
 40
0.432054
  0
CIRCLE
  5
178
100
AcDbEntity
  8
0
  6
ByLayer
 62
  256
370
   -1
100
AcDbCircle
 10
76.44511
 20
-3.175
 40
0.432054
  0
CIRCLE
  5
179
100
AcDbEntity
  8
0
  6
ByLayer
 62
  256
370
   -1
100
AcDbCircle
 10
77.844904
 20
-3.175
 40
0.432054
  0
CIRCLE
  5
17A
100
AcDbEntity
  8
0
  6
ByLayer
 62
  256
370
   -1
100
AcDbCircle
 10
79.244952
 20
-3.175
 40
0.432054
  0
CIRCLE
  5
17B
100
AcDbEntity
  8
0
  6
ByLayer
 62
  256
370
   -1
100
AcDbCircle
 10
80.645
 20
-3.175
 40
0.432054
  0
CIRCLE
  5
17C
100
AcDbEntity
  8
0
  6
ByLayer
 62
  256
370
   -1
100
AcDbCircle
 10
0
 20
0
 40
2.9972
  0
CIRCLE
  5
17D
100
AcDbEntity
  8
0
  6
ByLayer
 62
  256
370
   -1
100
AcDbCircle
 10
102.235
 20
6.985
 40
2.9972
  0
CIRCLE
  5
17E
100
AcDbEntity
  8
0
  6
ByLayer
 62
  256
370
   -1
100
AcDbCircle
 10
102.235
 20
88.410034
 40
2.9972
  0
CIRCLE
  5
17F
100
AcDbEntity
  8
0
  6
ByLayer
 62
  256
370
   -1
100
AcDbCircle
 10
0
 20
88.410034
 40
2.9972
  0
TEXT
  5
180
100
AcDbEntity
  8
PACKAGE_GEOMET_SILKSCREEN_BOTT
  6
ByLayer
 62
  256
370
   -1
100
AcDbText
 10
17.8816
 20
55.89524
 30
0
 40
2.032
  1
+
 50
0
 41
1
 51
0
  7
standard
 71
    0
210
0
220
0
230
1
100
AcDbText
  0
CIRCLE
  5
181
100
AcDbEntity
  8
0
  6
ByLayer
 62
  256
370
   -1
100
AcDbCircle
 10
19.459956
 20
-8.855964
 40
1.4097
  0
CIRCLE
  5
182
100
AcDbEntity
  8
0
  6
ByLayer
 62
  256
370
   -1
100
AcDbCircle
 10
32.599884
 20
-8.855964
 40
1.4097
  0
CIRCLE
  5
183
100
AcDbEntity
  8
0
  6
ByLayer
 62
  256
370
   -1
100
AcDbCircle
 10
22.5298
 20
-6.146038
 40
0.7112000000000001
  0
CIRCLE
  5
184
100
AcDbEntity
  8
0
  6
ByLayer
 62
  256
370
   -1
100
AcDbCircle
 10
29.53004
 20
-6.146038
 40
0.7112000000000001
  0
CIRCLE
  5
185
100
AcDbEntity
  8
0
  6
ByLayer
 62
  256
370
   -1
100
AcDbCircle
 10
25.029922
 20
-6.146038
 40
0.7112000000000001
  0
CIRCLE
  5
186
100
AcDbEntity
  8
0
  6
ByLayer
 62
  256
370
   -1
100
AcDbCircle
 10
27.029918
 20
-6.146038
 40
0.7112000000000001
  0
CIRCLE
  5
187
100
AcDbEntity
  8
0
  6
ByLayer
 62
  256
370
   -1
100
AcDbCircle
 10
22.5298
 20
-3.526028
 40
0.7112000000000001
  0
CIRCLE
  5
188
100
AcDbEntity
  8
0
  6
ByLayer
 62
  256
370
   -1
100
AcDbCircle
 10
27.029918
 20
-3.526028
 40
0.7112000000000001
  0
CIRCLE
  5
189
100
AcDbEntity
  8
0
  6
ByLayer
 62
  256
370
   -1
100
AcDbCircle
 10
25.029922
 20
-3.526028
 40
0.7112000000000001
  0
CIRCLE
  5
18A
100
AcDbEntity
  8
0
  6
ByLayer
 62
  256
370
   -1
100
AcDbCircle
 10
29.53004
 20
-3.526028
 40
0.7112000000000001
  0
CIRCLE
  5
18B
100
AcDbEntity
  8
0
  6
ByLayer
 62
  256
370
   -1
100
AcDbCircle
 10
19.459956
 20
-3.176016
 40
1.4097
  0
CIRCLE
  5
18C
100
AcDbEntity
  8
0
  6
ByLayer
 62
  256
370
   -1
100
AcDbCircle
 10
32.599884
 20
-3.176016
 40
1.4097
  0
CIRCLE
  5
18D
100
AcDbEntity
  8
0
  6
ByLayer
 62
  256
370
   -1
100
AcDbCircle
 10
16.679926
 20
-11.48588
 40
1.4097
  0
CIRCLE
  5
18E
100
AcDbEntity
  8
0
  6
ByLayer
 62
  256
370
   -1
100
AcDbCircle
 10
35.379914
 20
-11.48588
 40
1.4097
  0
CIRCLE
  5
18F
100
AcDbEntity
  8
0
  6
ByLayer
 62
  256
370
   -1
100
AcDbCircle
 10
16.679926
 20
1.194054
 40
1.4097
  0
CIRCLE
  5
190
100
AcDbEntity
  8
0
  6
ByLayer
 62
  256
370
   -1
100
AcDbCircle
 10
35.379914
 20
1.194054
 40
1.4097
  0
CIRCLE
  5
191
100
AcDbEntity
  8
0
  6
ByLayer
 62
  256
370
   -1
100
AcDbCircle
 10
31.74492
 20
1.28905
 40
0.6985
  0
CIRCLE
  5
192
100
AcDbEntity
  8
0
  6
ByLayer
 62
  256
370
   -1
100
AcDbCircle
 10
29.20492
 20
1.28905
 40
0.6985
  0
CIRCLE
  5
193
100
AcDbEntity
  8
0
  6
ByLayer
 62
  256
370
   -1
100
AcDbCircle
 10
26.66492
 20
1.28905
 40
0.6985
  0
CIRCLE
  5
194
100
AcDbEntity
  8
0
  6
ByLayer
 62
  256
370
   -1
100
AcDbCircle
 10
24.12492
 20
1.28905
 40
0.6985
  0
CIRCLE
  5
195
100
AcDbEntity
  8
0
  6
ByLayer
 62
  256
370
   -1
100
AcDbCircle
 10
21.58492
 20
1.28905
 40
0.6985
  0
CIRCLE
  5
196
100
AcDbEntity
  8
0
  6
ByLayer
 62
  256
370
   -1
100
AcDbCircle
 10
20.31492
 20
3.82905
 40
0.6985
  0
CIRCLE
  5
197
100
AcDbEntity
  8
0
  6
ByLayer
 62
  256
370
   -1
100
AcDbCircle
 10
22.85492
 20
3.82905
 40
0.6985
  0
CIRCLE
  5
198
100
AcDbEntity
  8
0
  6
ByLayer
 62
  256
370
   -1
100
AcDbCircle
 10
25.39492
 20
3.82905
 40
0.6985
  0
CIRCLE
  5
199
100
AcDbEntity
  8
0
  6
ByLayer
 62
  256
370
   -1
100
AcDbCircle
 10
27.93492
 20
3.82905
 40
0.6985
  0
CIRCLE
  5
19A
100
AcDbEntity
  8
0
  6
ByLayer
 62
  256
370
   -1
100
AcDbCircle
 10
30.47492
 20
3.82905
 40
0.6985
  0
CIRCLE
  5
19B
100
AcDbEntity
  8
0
  6
ByLayer
 62
  256
370
   -1
100
AcDbCircle
 10
30.689804
 20
6.664198
 40
0.6985
  0
CIRCLE
  5
19C
100
AcDbEntity
  8
0
  6
ByLayer
 62
  256
370
   -1
100
AcDbCircle
 10
21.370036
 20
6.664198
 40
0.6985
  0
CIRCLE
  5
19D
100
AcDbEntity
  8
0
  6
ByLayer
 62
  256
370
   -1
100
AcDbCircle
 10
18.830036
 20
6.664198
 40
0.6985
  0
CIRCLE
  5
19E
100
AcDbEntity
  8
0
  6
ByLayer
 62
  256
370
   -1
100
AcDbCircle
 10
33.229804
 20
6.664198
 40
0.6985
  0
LWPOLYLINE
  5
19F
100
AcDbEntity
  8
0
  6
ByLayer
 62
  256
370
   -1
100
AcDbPolyline
 90
    4
 70
    1
 43
0
 10
98.5647
 20
10.5283
 10
99.43846000000001
 20
10.96518
 10
99.43846000000001
 20
11.23442
 10
98.5647
 20
11.6713
  0
LWPOLYLINE
  5
1A0
100
AcDbEntity
  8
0
  6
ByLayer
 62
  256
370
   -1
100
AcDbPolyline
 90
    4
 70
    1
 43
0
 10
100.3173
 20
11.6713
 10
99.44354
 20
11.23442
 10
99.44354
 20
10.96518
 10
100.3173
 20
10.5283
  0
LWPOLYLINE
  5
1A1
100
AcDbEntity
  8
0
  6
ByLayer
 62
  256
370
   -1
100
AcDbPolyline
 90
    4
 70
    1
 43
0
 10
102.616
 20
18.3515
 10
102.616
 20
19.7485
 10
103.886
 20
19.7485
 10
103.886
 20
18.3515
  0
LWPOLYLINE
  5
1A2
100
AcDbEntity
  8
0
  6
ByLayer
 62
  256
370
   -1
100
AcDbPolyline
 90
    4
 70
    1
 43
0
 10
102.616
 20
16.3195
 10
102.616
 20
17.7165
 10
103.886
 20
17.7165
 10
103.886
 20
16.3195
  0
CIRCLE
  5
1A3
100
AcDbEntity
  8
0
  6
ByLayer
 62
  256
370
   -1
100
AcDbCircle
 10
103.251
 20
36.9062
 40
0.762
  0
CIRCLE
  5
1A4
100
AcDbEntity
  8
0
  6
ByLayer
 62
  256
370
   -1
100
AcDbCircle
 10
103.251
 20
39.3954
 40
0.762
  0
CIRCLE
  5
1A5
100
AcDbEntity
  8
0
  6
ByLayer
 62
  256
370
   -1
100
AcDbCircle
 10
103.251
 20
41.8846
 40
0.762
  0
LWPOLYLINE
  5
1A6
100
AcDbEntity
  8
0
  6
ByLayer
 62
  256
370
   -1
100
AcDbPolyline
 90
    4
 70
    1
 43
0
 10
102.489
 20
45.1358
 10
104.013
 20
45.1358
 10
104.013
 20
43.6118
 10
102.489
 20
43.6118
  0
CIRCLE
  5
1A7
100
AcDbEntity
  8
0
  6
ByLayer
 62
  256
370
   -1
100
AcDbCircle
 10
103.251
 20
23.5712
 40
0.762
  0
CIRCLE
  5
1A8
100
AcDbEntity
  8
0
  6
ByLayer
 62
  256
370
   -1
100
AcDbCircle
 10
103.251
 20
26.0604
 40
0.762
  0
CIRCLE
  5
1A9
100
AcDbEntity
  8
0
  6
ByLayer
 62
  256
370
   -1
100
AcDbCircle
 10
103.251
 20
28.5496
 40
0.762
  0
LWPOLYLINE
  5
1AA
100
AcDbEntity
  8
0
  6
ByLayer
 62
  256
370
   -1
100
AcDbPolyline
 90
    4
 70
    1
 43
0
 10
102.489
 20
31.8008
 10
104.013
 20
31.8008
 10
104.013
 20
30.2768
 10
102.489
 20
30.2768
  0
CIRCLE
  5
1AB
100
AcDbEntity
  8
0
  6
ByLayer
 62
  256
370
   -1
100
AcDbCircle
 10
3.175
 20
-6.4262
 40
1.27
  0
LWPOLYLINE
  5
1AC
100
AcDbEntity
  8
0
  6
ByLayer
 62
  256
370
   -1
100
AcDbPolyline
 90
    4
 70
    1
 43
0
 10
-0.923544
 20
-7.4041
 10
-0.9235440000000001
 20
-9.004300000000001
 42
-0.9999999999999999
 10
-2.345944
 20
-9.004300000000001
 10
-2.345944
 20
-7.4041
 42
-0.9999999999999999
  0
LWPOLYLINE
  5
1AD
100
AcDbEntity
  8
0
  6
ByLayer
 62
  256
370
   -1
100
AcDbPolyline
 90
    4
 70
    1
 43
0
 10
8.695944000000001
 20
-7.4041
 10
8.695944000000001
 20
-9.004300000000001
 42
-0.9999999999999999
 10
7.273544000000001
 20
-9.004300000000001
 10
7.273544000000001
 20
-7.4041
 42
-0.9999999999999999
  0
CIRCLE
  5
1AE
100
AcDbEntity
  8
0
  6
ByLayer
 62
  256
370
   -1
100
AcDbCircle
 10
3.175
 20
-15.6972
 40
0.8255
  0
LWPOLYLINE
  5
1AF
100
AcDbEntity
  8
0
  6
ByLayer
 62
  256
370
   -1
100
AcDbPolyline
 90
    4
 70
    1
 43
0
 10
-0.923544
 20
-12.1285
 10
-0.9235440000000001
 20
-13.7287
 42
-0.9999999999999999
 10
-2.345944
 20
-13.7287
 10
-2.345944
 20
-12.1285
 42
-0.9999999999999999
  0
LWPOLYLINE
  5
1B0
100
AcDbEntity
  8
0
  6
ByLayer
 62
  256
370
   -1
100
AcDbPolyline
 90
    4
 70
    1
 43
0
 10
2.0574
 20
-11.7856
 10
4.2926
 20
-11.7856
 42
-0.9999999999999999
 10
4.2926
 20
-13.1064
 10
2.0574
 20
-13.1064
 42
-0.9999999999999999
  0
LWPOLYLINE
  5
1B1
100
AcDbEntity
  8
0
  6
ByLayer
 62
  256
370
   -1
100
AcDbPolyline
 90
    4
 70
    1
 43
0
 10
8.695944000000001
 20
-12.1285
 10
8.695944000000001
 20
-13.7287
 42
-0.9999999999999999
 10
7.273544000000001
 20
-13.7287
 10
7.273544000000001
 20
-12.1285
 42
-0.9999999999999999
  0
CIRCLE
  5
1B2
100
AcDbEntity
  8
0
  6
ByLayer
 62
  256
370
   -1
100
AcDbCircle
 10
102.251002
 20
71.755
 40
0.5207000000000001
  0
CIRCLE
  5
1B3
100
AcDbEntity
  8
0
  6
ByLayer
 62
  256
370
   -1
100
AcDbCircle
 10
102.251002
 20
73.02500000000001
 40
0.5207000000000001
  0
CIRCLE
  5
1B4
100
AcDbEntity
  8
0
  6
ByLayer
 62
  256
370
   -1
100
AcDbCircle
 10
102.251002
 20
75.565
 40
0.5207000000000001
  0
CIRCLE
  5
1B5
100
AcDbEntity
  8
0
  6
ByLayer
 62
  256
370
   -1
100
AcDbCircle
 10
102.251002
 20
76.83499999999999
 40
0.5207000000000001
  0
CIRCLE
  5
1B6
100
AcDbEntity
  8
0
  6
ByLayer
 62
  256
370
   -1
100
AcDbCircle
 10
103.251
 20
70.485
 40
0.5207000000000001
  0
CIRCLE
  5
1B7
100
AcDbEntity
  8
0
  6
ByLayer
 62
  256
370
   -1
100
AcDbCircle
 10
103.251
 20
74.295
 40
0.5207000000000001
  0
LWPOLYLINE
  5
1B8
100
AcDbEntity
  8
0
  6
ByLayer
 62
  256
370
   -1
100
AcDbPolyline
 90
    4
 70
    1
 43
0
 10
103.7717
 20
77.5843
 10
102.7303
 20
77.5843
 10
102.7303
 20
78.62569999999999
 10
103.7717
 20
78.62569999999999
  0
CIRCLE
  5
1B9
100
AcDbEntity
  8
0
  6
ByLayer
 62
  256
370
   -1
100
AcDbCircle
 10
102.750874
 20
67.81495200000001
 40
1.016
  0
CIRCLE
  5
1BA
100
AcDbEntity
  8
0
  6
ByLayer
 62
  256
370
   -1
100
AcDbCircle
 10
102.750874
 20
80.775048
 40
1.016
  0
CIRCLE
  5
1BB
100
AcDbEntity
  8
0
  6
ByLayer
 62
  256
370
   -1
100
AcDbCircle
 10
102.251002
 20
53.975
 40
0.5207000000000001
  0
CIRCLE
  5
1BC
100
AcDbEntity
  8
0
  6
ByLayer
 62
  256
370
   -1
100
AcDbCircle
 10
102.251002
 20
55.245
 40
0.5207000000000001
  0
CIRCLE
  5
1BD
100
AcDbEntity
  8
0
  6
ByLayer
 62
  256
370
   -1
100
AcDbCircle
 10
102.251002
 20
57.785
 40
0.5207000000000001
  0
CIRCLE
  5
1BE
100
AcDbEntity
  8
0
  6
ByLayer
 62
  256
370
   -1
100
AcDbCircle
 10
102.251002
 20
59.055
 40
0.5207000000000001
  0
CIRCLE
  5
1BF
100
AcDbEntity
  8
0
  6
ByLayer
 62
  256
370
   -1
100
AcDbCircle
 10
103.251
 20
52.705
 40
0.5207000000000001
  0
CIRCLE
  5
1C0
100
AcDbEntity
  8
0
  6
ByLayer
 62
  256
370
   -1
100
AcDbCircle
 10
103.251
 20
56.515
 40
0.5207000000000001
  0
LWPOLYLINE
  5
1C1
100
AcDbEntity
  8
0
  6
ByLayer
 62
  256
370
   -1
100
AcDbPolyline
 90
    4
 70
    1
 43
0
 10
103.7717
 20
59.8043
 10
102.7303
 20
59.8043
 10
102.7303
 20
60.8457
 10
103.7717
 20
60.8457
  0
CIRCLE
  5
1C2
100
AcDbEntity
  8
0
  6
ByLayer
 62
  256
370
   -1
100
AcDbCircle
 10
102.750874
 20
50.034952
 40
1.016
  0
CIRCLE
  5
1C3
100
AcDbEntity
  8
0
  6
ByLayer
 62
  256
370
   -1
100
AcDbCircle
 10
102.750874
 20
62.995048
 40
1.016
  0
LWPOLYLINE
  5
1C4
100
AcDbEntity
  8
0
  6
ByLayer
 62
  256
370
   -1
100
AcDbPolyline
 90
    4
 70
    1
 43
0
 10
25.273
 20
13.208
 10
25.273
 20
16.002
 10
28.067
 20
16.002
 10
28.067
 20
13.208
  0
LWPOLYLINE
  5
1C5
100
AcDbEntity
  8
0
  6
ByLayer
 62
  256
370
   -1
100
AcDbPolyline
 90
    4
 70
    1
 43
0
 10
29.076396
 20
13.306552
 10
28.365196
 20
13.306552
 42
0.9999999999999999
 10
28.365196
 20
13.103352
 10
29.076396
 20
13.103352
  0
LWPOLYLINE
  5
1C6
100
AcDbEntity
  8
0
  6
ByLayer
 62
  256
370
   -1
100
AcDbPolyline
 90
    4
 70
    1
 43
0
 10
29.076396
 20
13.706602
 10
28.365196
 20
13.706602
 42
0.9999999999999999
 10
28.365196
 20
13.503402
 10
29.076396
 20
13.503402
  0
LWPOLYLINE
  5
1C7
100
AcDbEntity
  8
0
  6
ByLayer
 62
  256
370
   -1
100
AcDbPolyline
 90
    4
 70
    1
 43
0
 10
29.076396
 20
14.106652
 10
28.365196
 20
14.106652
 42
0.9999999999999999
 10
28.365196
 20
13.903452
 10
29.076396
 20
13.903452
  0
LWPOLYLINE
  5
1C8
100
AcDbEntity
  8
0
  6
ByLayer
 62
  256
370
   -1
100
AcDbPolyline
 90
    4
 70
    1
 43
0
 10
29.076396
 20
14.506702
 10
28.365196
 20
14.506702
 42
0.9999999999999999
 10
28.365196
 20
14.303502
 10
29.076396
 20
14.303502
  0
LWPOLYLINE
  5
1C9
100
AcDbEntity
  8
0
  6
ByLayer
 62
  256
370
   -1
100
AcDbPolyline
 90
    4
 70
    1
 43
0
 10
29.076396
 20
14.906498
 10
28.365196
 20
14.906498
 42
0.9999999999999999
 10
28.365196
 20
14.703298
 10
29.076396
 20
14.703298
  0
LWPOLYLINE
  5
1CA
100
AcDbEntity
  8
0
  6
ByLayer
 62
  256
370
   -1
100
AcDbPolyline
 90
    4
 70
    1
 43
0
 10
29.076396
 20
15.306548
 10
28.365196
 20
15.306548
 42
0.9999999999999999
 10
28.365196
 20
15.103348
 10
29.076396
 20
15.103348
  0
LWPOLYLINE
  5
1CB
100
AcDbEntity
  8
0
  6
ByLayer
 62
  256
370
   -1
100
AcDbPolyline
 90
    4
 70
    1
 43
0
 10
29.076396
 20
15.706598
 10
28.365196
 20
15.706598
 42
0.9999999999999999
 10
28.365196
 20
15.503398
 10
29.076396
 20
15.503398
  0
LWPOLYLINE
  5
1CC
100
AcDbEntity
  8
0
  6
ByLayer
 62
  256
370
   -1
100
AcDbPolyline
 90
    4
 70
    1
 43
0
 10
29.076396
 20
16.106648
 10
28.365196
 20
16.106648
 42
0.9999999999999999
 10
28.365196
 20
15.903448
 10
29.076396
 20
15.903448
  0
LWPOLYLINE
  5
1CD
100
AcDbEntity
  8
0
  6
ByLayer
 62
  256
370
   -1
100
AcDbPolyline
 90
    4
 70
    1
 43
0
 10
27.968448
 20
17.011396
 10
27.968448
 20
16.300196
 42
0.9999999999999999
 10
28.171648
 20
16.300196
 10
28.171648
 20
17.011396
  0
LWPOLYLINE
  5
1CE
100
AcDbEntity
  8
0
  6
ByLayer
 62
  256
370
   -1
100
AcDbPolyline
 90
    4
 70
    1
 43
0
 10
27.568398
 20
17.011396
 10
27.568398
 20
16.300196
 42
0.9999999999999999
 10
27.771598
 20
16.300196
 10
27.771598
 20
17.011396
  0
LWPOLYLINE
  5
1CF
100
AcDbEntity
  8
0
  6
ByLayer
 62
  256
370
   -1
100
AcDbPolyline
 90
    4
 70
    1
 43
0
 10
27.168348
 20
17.011396
 10
27.168348
 20
16.300196
 42
0.9999999999999999
 10
27.371548
 20
16.300196
 10
27.371548
 20
17.011396
  0
LWPOLYLINE
  5
1D0
100
AcDbEntity
  8
0
  6
ByLayer
 62
  256
370
   -1
100
AcDbPolyline
 90
    4
 70
    1
 43
0
 10
26.768298
 20
17.011396
 10
26.768298
 20
16.300196
 42
0.9999999999999999
 10
26.971498
 20
16.300196
 10
26.971498
 20
17.011396
  0
LWPOLYLINE
  5
1D1
100
AcDbEntity
  8
0
  6
ByLayer
 62
  256
370
   -1
100
AcDbPolyline
 90
    4
 70
    1
 43
0
 10
26.368502
 20
17.011396
 10
26.368502
 20
16.300196
 42
0.9999999999999999
 10
26.57170199999999
 20
16.300196
 10
26.571702
 20
17.011396
  0
LWPOLYLINE
  5
1D2
100
AcDbEntity
  8
0
  6
ByLayer
 62
  256
370
   -1
100
AcDbPolyline
 90
    4
 70
    1
 43
0
 10
25.968452
 20
17.011396
 10
25.968452
 20
16.300196
 42
0.9999999999999999
 10
26.171652
 20
16.300196
 10
26.171652
 20
17.011396
  0
LWPOLYLINE
  5
1D3
100
AcDbEntity
  8
0
  6
ByLayer
 62
  256
370
   -1
100
AcDbPolyline
 90
    4
 70
    1
 43
0
 10
25.568402
 20
17.011396
 10
25.568402
 20
16.300196
 42
0.9999999999999999
 10
25.771602
 20
16.300196
 10
25.771602
 20
17.011396
  0
LWPOLYLINE
  5
1D4
100
AcDbEntity
  8
0
  6
ByLayer
 62
  256
370
   -1
100
AcDbPolyline
 90
    4
 70
    1
 43
0
 10
25.168352
 20
17.011396
 10
25.168352
 20
16.300196
 42
0.9999999999999999
 10
25.371552
 20
16.300196
 10
25.371552
 20
17.011396
  0
LWPOLYLINE
  5
1D5
100
AcDbEntity
  8
0
  6
ByLayer
 62
  256
370
   -1
100
AcDbPolyline
 90
    4
 70
    1
 43
0
 10
24.263604
 20
15.903448
 10
24.974804
 20
15.903448
 42
0.9999999999999999
 10
24.974804
 20
16.106648
 10
24.263604
 20
16.106648
  0
LWPOLYLINE
  5
1D6
100
AcDbEntity
  8
0
  6
ByLayer
 62
  256
370
   -1
100
AcDbPolyline
 90
    4
 70
    1
 43
0
 10
24.263604
 20
15.503398
 10
24.974804
 20
15.503398
 42
0.9999999999999999
 10
24.974804
 20
15.706598
 10
24.263604
 20
15.706598
  0
LWPOLYLINE
  5
1D7
100
AcDbEntity
  8
0
  6
ByLayer
 62
  256
370
   -1
100
AcDbPolyline
 90
    4
 70
    1
 43
0
 10
24.263604
 20
15.103348
 10
24.974804
 20
15.103348
 42
0.9999999999999999
 10
24.974804
 20
15.306548
 10
24.263604
 20
15.306548
  0
LWPOLYLINE
  5
1D8
100
AcDbEntity
  8
0
  6
ByLayer
 62
  256
370
   -1
100
AcDbPolyline
 90
    4
 70
    1
 43
0
 10
24.263604
 20
14.703298
 10
24.974804
 20
14.703298
 42
0.9999999999999999
 10
24.974804
 20
14.906498
 10
24.263604
 20
14.906498
  0
LWPOLYLINE
  5
1D9
100
AcDbEntity
  8
0
  6
ByLayer
 62
  256
370
   -1
100
AcDbPolyline
 90
    4
 70
    1
 43
0
 10
24.263604
 20
14.303502
 10
24.974804
 20
14.303502
 42
0.9999999999999999
 10
24.974804
 20
14.506702
 10
24.263604
 20
14.506702
  0
LWPOLYLINE
  5
1DA
100
AcDbEntity
  8
0
  6
ByLayer
 62
  256
370
   -1
100
AcDbPolyline
 90
    4
 70
    1
 43
0
 10
24.263604
 20
13.903452
 10
24.974804
 20
13.903452
 42
0.9999999999999999
 10
24.974804
 20
14.106652
 10
24.263604
 20
14.106652
  0
LWPOLYLINE
  5
1DB
100
AcDbEntity
  8
0
  6
ByLayer
 62
  256
370
   -1
100
AcDbPolyline
 90
    4
 70
    1
 43
0
 10
24.263604
 20
13.503402
 10
24.974804
 20
13.503402
 42
0.9999999999999999
 10
24.974804
 20
13.706602
 10
24.263604
 20
13.706602
  0
LWPOLYLINE
  5
1DC
100
AcDbEntity
  8
0
  6
ByLayer
 62
  256
370
   -1
100
AcDbPolyline
 90
    4
 70
    1
 43
0
 10
24.263604
 20
13.103352
 10
24.974804
 20
13.103352
 42
0.9999999999999999
 10
24.974804
 20
13.306552
 10
24.263604
 20
13.306552
  0
LWPOLYLINE
  5
1DD
100
AcDbEntity
  8
0
  6
ByLayer
 62
  256
370
   -1
100
AcDbPolyline
 90
    4
 70
    1
 43
0
 10
25.371552
 20
12.198604
 10
25.371552
 20
12.909804
 42
0.9999999999999999
 10
25.168352
 20
12.909804
 10
25.168352
 20
12.198604
  0
LWPOLYLINE
  5
1DE
100
AcDbEntity
  8
0
  6
ByLayer
 62
  256
370
   -1
100
AcDbPolyline
 90
    4
 70
    1
 43
0
 10
25.771602
 20
12.198604
 10
25.771602
 20
12.909804
 42
0.9999999999999999
 10
25.568402
 20
12.909804
 10
25.568402
 20
12.198604
  0
LWPOLYLINE
  5
1DF
100
AcDbEntity
  8
0
  6
ByLayer
 62
  256
370
   -1
100
AcDbPolyline
 90
    4
 70
    1
 43
0
 10
26.171652
 20
12.198604
 10
26.171652
 20
12.909804
 42
0.9999999999999999
 10
25.968452
 20
12.909804
 10
25.968452
 20
12.198604
  0
LWPOLYLINE
  5
1E0
100
AcDbEntity
  8
0
  6
ByLayer
 62
  256
370
   -1
100
AcDbPolyline
 90
    4
 70
    1
 43
0
 10
26.571702
 20
12.198604
 10
26.57170199999999
 20
12.909804
 42
0.9999999999999999
 10
26.368502
 20
12.909804
 10
26.368502
 20
12.198604
  0
LWPOLYLINE
  5
1E1
100
AcDbEntity
  8
0
  6
ByLayer
 62
  256
370
   -1
100
AcDbPolyline
 90
    4
 70
    1
 43
0
 10
26.971498
 20
12.198604
 10
26.971498
 20
12.909804
 42
0.9999999999999999
 10
26.768298
 20
12.909804
 10
26.768298
 20
12.198604
  0
LWPOLYLINE
  5
1E2
100
AcDbEntity
  8
0
  6
ByLayer
 62
  256
370
   -1
100
AcDbPolyline
 90
    4
 70
    1
 43
0
 10
27.371548
 20
12.198604
 10
27.371548
 20
12.909804
 42
0.9999999999999999
 10
27.168348
 20
12.909804
 10
27.168348
 20
12.198604
  0
LWPOLYLINE
  5
1E3
100
AcDbEntity
  8
0
  6
ByLayer
 62
  256
370
   -1
100
AcDbPolyline
 90
    4
 70
    1
 43
0
 10
27.771598
 20
12.198604
 10
27.771598
 20
12.909804
 42
0.9999999999999999
 10
27.568398
 20
12.909804
 10
27.568398
 20
12.198604
  0
LWPOLYLINE
  5
1E4
100
AcDbEntity
  8
0
  6
ByLayer
 62
  256
370
   -1
100
AcDbPolyline
 90
    4
 70
    1
 43
0
 10
28.171648
 20
12.198604
 10
28.171648
 20
12.909804
 42
0.9999999999999999
 10
27.968448
 20
12.909804
 10
27.968448
 20
12.198604
  0
LWPOLYLINE
  5
1E5
100
AcDbEntity
  8
0
  6
ByLayer
 62
  256
370
   -1
100
AcDbPolyline
 90
    4
 70
    1
 43
0
 10
49.403
 20
13.208
 10
49.403
 20
16.002
 10
52.197
 20
16.002
 10
52.197
 20
13.208
  0
LWPOLYLINE
  5
1E6
100
AcDbEntity
  8
0
  6
ByLayer
 62
  256
370
   -1
100
AcDbPolyline
 90
    4
 70
    1
 43
0
 10
53.206396
 20
13.306552
 10
52.495196
 20
13.306552
 42
0.9999999999999999
 10
52.495196
 20
13.103352
 10
53.206396
 20
13.103352
  0
LWPOLYLINE
  5
1E7
100
AcDbEntity
  8
0
  6
ByLayer
 62
  256
370
   -1
100
AcDbPolyline
 90
    4
 70
    1
 43
0
 10
53.206396
 20
13.706602
 10
52.495196
 20
13.706602
 42
0.9999999999999999
 10
52.495196
 20
13.503402
 10
53.206396
 20
13.503402
  0
LWPOLYLINE
  5
1E8
100
AcDbEntity
  8
0
  6
ByLayer
 62
  256
370
   -1
100
AcDbPolyline
 90
    4
 70
    1
 43
0
 10
53.206396
 20
14.106652
 10
52.495196
 20
14.106652
 42
0.9999999999999999
 10
52.495196
 20
13.903452
 10
53.206396
 20
13.903452
  0
LWPOLYLINE
  5
1E9
100
AcDbEntity
  8
0
  6
ByLayer
 62
  256
370
   -1
100
AcDbPolyline
 90
    4
 70
    1
 43
0
 10
53.206396
 20
14.506702
 10
52.495196
 20
14.506702
 42
0.9999999999999999
 10
52.495196
 20
14.303502
 10
53.206396
 20
14.303502
  0
LWPOLYLINE
  5
1EA
100
AcDbEntity
  8
0
  6
ByLayer
 62
  256
370
   -1
100
AcDbPolyline
 90
    4
 70
    1
 43
0
 10
53.206396
 20
14.906498
 10
52.495196
 20
14.906498
 42
0.9999999999999999
 10
52.495196
 20
14.703298
 10
53.206396
 20
14.703298
  0
LWPOLYLINE
  5
1EB
100
AcDbEntity
  8
0
  6
ByLayer
 62
  256
370
   -1
100
AcDbPolyline
 90
    4
 70
    1
 43
0
 10
53.206396
 20
15.306548
 10
52.495196
 20
15.306548
 42
0.9999999999999999
 10
52.495196
 20
15.103348
 10
53.206396
 20
15.103348
  0
LWPOLYLINE
  5
1EC
100
AcDbEntity
  8
0
  6
ByLayer
 62
  256
370
   -1
100
AcDbPolyline
 90
    4
 70
    1
 43
0
 10
53.206396
 20
15.706598
 10
52.495196
 20
15.706598
 42
0.9999999999999999
 10
52.495196
 20
15.503398
 10
53.206396
 20
15.503398
  0
LWPOLYLINE
  5
1ED
100
AcDbEntity
  8
0
  6
ByLayer
 62
  256
370
   -1
100
AcDbPolyline
 90
    4
 70
    1
 43
0
 10
53.206396
 20
16.106648
 10
52.495196
 20
16.106648
 42
0.9999999999999999
 10
52.495196
 20
15.903448
 10
53.206396
 20
15.903448
  0
LWPOLYLINE
  5
1EE
100
AcDbEntity
  8
0
  6
ByLayer
 62
  256
370
   -1
100
AcDbPolyline
 90
    4
 70
    1
 43
0
 10
52.098448
 20
17.011396
 10
52.09844799999999
 20
16.300196
 42
0.9999999999999999
 10
52.301648
 20
16.300196
 10
52.301648
 20
17.011396
  0
LWPOLYLINE
  5
1EF
100
AcDbEntity
  8
0
  6
ByLayer
 62
  256
370
   -1
100
AcDbPolyline
 90
    4
 70
    1
 43
0
 10
51.698398
 20
17.011396
 10
51.698398
 20
16.300196
 42
0.9999999999999999
 10
51.90159800000001
 20
16.300196
 10
51.901598
 20
17.011396
  0
LWPOLYLINE
  5
1F0
100
AcDbEntity
  8
0
  6
ByLayer
 62
  256
370
   -1
100
AcDbPolyline
 90
    4
 70
    1
 43
0
 10
51.298348
 20
17.011396
 10
51.29834799999999
 20
16.300196
 42
0.9999999999999999
 10
51.501548
 20
16.300196
 10
51.501548
 20
17.011396
  0
LWPOLYLINE
  5
1F1
100
AcDbEntity
  8
0
  6
ByLayer
 62
  256
370
   -1
100
AcDbPolyline
 90
    4
 70
    1
 43
0
 10
50.898298
 20
17.011396
 10
50.898298
 20
16.300196
 42
0.9999999999999999
 10
51.10149800000001
 20
16.300196
 10
51.101498
 20
17.011396
  0
LWPOLYLINE
  5
1F2
100
AcDbEntity
  8
0
  6
ByLayer
 62
  256
370
   -1
100
AcDbPolyline
 90
    4
 70
    1
 43
0
 10
50.498502
 20
17.011396
 10
50.498502
 20
16.300196
 42
0.9999999999999999
 10
50.701702
 20
16.300196
 10
50.701702
 20
17.011396
  0
LWPOLYLINE
  5
1F3
100
AcDbEntity
  8
0
  6
ByLayer
 62
  256
370
   -1
100
AcDbPolyline
 90
    4
 70
    1
 43
0
 10
50.098452
 20
17.011396
 10
50.098452
 20
16.300196
 42
0.9999999999999999
 10
50.301652
 20
16.300196
 10
50.301652
 20
17.011396
  0
LWPOLYLINE
  5
1F4
100
AcDbEntity
  8
0
  6
ByLayer
 62
  256
370
   -1
100
AcDbPolyline
 90
    4
 70
    1
 43
0
 10
49.698402
 20
17.011396
 10
49.698402
 20
16.300196
 42
0.9999999999999999
 10
49.901602
 20
16.300196
 10
49.901602
 20
17.011396
  0
LWPOLYLINE
  5
1F5
100
AcDbEntity
  8
0
  6
ByLayer
 62
  256
370
   -1
100
AcDbPolyline
 90
    4
 70
    1
 43
0
 10
49.298352
 20
17.011396
 10
49.298352
 20
16.300196
 42
0.9999999999999999
 10
49.501552
 20
16.300196
 10
49.501552
 20
17.011396
  0
LWPOLYLINE
  5
1F6
100
AcDbEntity
  8
0
  6
ByLayer
 62
  256
370
   -1
100
AcDbPolyline
 90
    4
 70
    1
 43
0
 10
48.393604
 20
15.903448
 10
49.104804
 20
15.903448
 42
0.9999999999999999
 10
49.104804
 20
16.106648
 10
48.393604
 20
16.106648
  0
LWPOLYLINE
  5
1F7
100
AcDbEntity
  8
0
  6
ByLayer
 62
  256
370
   -1
100
AcDbPolyline
 90
    4
 70
    1
 43
0
 10
48.393604
 20
15.503398
 10
49.104804
 20
15.503398
 42
0.9999999999999999
 10
49.104804
 20
15.706598
 10
48.393604
 20
15.706598
  0
LWPOLYLINE
  5
1F8
100
AcDbEntity
  8
0
  6
ByLayer
 62
  256
370
   -1
100
AcDbPolyline
 90
    4
 70
    1
 43
0
 10
48.393604
 20
15.103348
 10
49.104804
 20
15.103348
 42
0.9999999999999999
 10
49.104804
 20
15.306548
 10
48.393604
 20
15.306548
  0
LWPOLYLINE
  5
1F9
100
AcDbEntity
  8
0
  6
ByLayer
 62
  256
370
   -1
100
AcDbPolyline
 90
    4
 70
    1
 43
0
 10
48.393604
 20
14.703298
 10
49.104804
 20
14.703298
 42
0.9999999999999999
 10
49.104804
 20
14.906498
 10
48.393604
 20
14.906498
  0
LWPOLYLINE
  5
1FA
100
AcDbEntity
  8
0
  6
ByLayer
 62
  256
370
   -1
100
AcDbPolyline
 90
    4
 70
    1
 43
0
 10
48.393604
 20
14.303502
 10
49.104804
 20
14.303502
 42
0.9999999999999999
 10
49.104804
 20
14.506702
 10
48.393604
 20
14.506702
  0
LWPOLYLINE
  5
1FB
100
AcDbEntity
  8
0
  6
ByLayer
 62
  256
370
   -1
100
AcDbPolyline
 90
    4
 70
    1
 43
0
 10
48.393604
 20
13.903452
 10
49.104804
 20
13.903452
 42
0.9999999999999999
 10
49.104804
 20
14.106652
 10
48.393604
 20
14.106652
  0
LWPOLYLINE
  5
1FC
100
AcDbEntity
  8
0
  6
ByLayer
 62
  256
370
   -1
100
AcDbPolyline
 90
    4
 70
    1
 43
0
 10
48.393604
 20
13.503402
 10
49.104804
 20
13.503402
 42
0.9999999999999999
 10
49.104804
 20
13.706602
 10
48.393604
 20
13.706602
  0
LWPOLYLINE
  5
1FD
100
AcDbEntity
  8
0
  6
ByLayer
 62
  256
370
   -1
100
AcDbPolyline
 90
    4
 70
    1
 43
0
 10
48.393604
 20
13.103352
 10
49.104804
 20
13.103352
 42
0.9999999999999999
 10
49.104804
 20
13.306552
 10
48.393604
 20
13.306552
  0
LWPOLYLINE
  5
1FE
100
AcDbEntity
  8
0
  6
ByLayer
 62
  256
370
   -1
100
AcDbPolyline
 90
    4
 70
    1
 43
0
 10
49.501552
 20
12.198604
 10
49.501552
 20
12.909804
 42
0.9999999999999999
 10
49.298352
 20
12.909804
 10
49.298352
 20
12.198604
  0
LWPOLYLINE
  5
1FF
100
AcDbEntity
  8
0
  6
ByLayer
 62
  256
370
   -1
100
AcDbPolyline
 90
    4
 70
    1
 43
0
 10
49.901602
 20
12.198604
 10
49.901602
 20
12.909804
 42
0.9999999999999999
 10
49.698402
 20
12.909804
 10
49.698402
 20
12.198604
  0
LWPOLYLINE
  5
200
100
AcDbEntity
  8
0
  6
ByLayer
 62
  256
370
   -1
100
AcDbPolyline
 90
    4
 70
    1
 43
0
 10
50.301652
 20
12.198604
 10
50.301652
 20
12.909804
 42
0.9999999999999999
 10
50.098452
 20
12.909804
 10
50.098452
 20
12.198604
  0
LWPOLYLINE
  5
201
100
AcDbEntity
  8
0
  6
ByLayer
 62
  256
370
   -1
100
AcDbPolyline
 90
    4
 70
    1
 43
0
 10
50.701702
 20
12.198604
 10
50.701702
 20
12.909804
 42
0.9999999999999999
 10
50.498502
 20
12.909804
 10
50.498502
 20
12.198604
  0
LWPOLYLINE
  5
202
100
AcDbEntity
  8
0
  6
ByLayer
 62
  256
370
   -1
100
AcDbPolyline
 90
    4
 70
    1
 43
0
 10
51.101498
 20
12.198604
 10
51.10149800000001
 20
12.909804
 42
0.9999999999999999
 10
50.898298
 20
12.909804
 10
50.898298
 20
12.198604
  0
LWPOLYLINE
  5
203
100
AcDbEntity
  8
0
  6
ByLayer
 62
  256
370
   -1
100
AcDbPolyline
 90
    4
 70
    1
 43
0
 10
51.501548
 20
12.198604
 10
51.501548
 20
12.909804
 42
0.9999999999999999
 10
51.29834799999999
 20
12.909804
 10
51.298348
 20
12.198604
  0
LWPOLYLINE
  5
204
100
AcDbEntity
  8
0
  6
ByLayer
 62
  256
370
   -1
100
AcDbPolyline
 90
    4
 70
    1
 43
0
 10
51.901598
 20
12.198604
 10
51.90159800000001
 20
12.909804
 42
0.9999999999999999
 10
51.698398
 20
12.909804
 10
51.698398
 20
12.198604
  0
LWPOLYLINE
  5
205
100
AcDbEntity
  8
0
  6
ByLayer
 62
  256
370
   -1
100
AcDbPolyline
 90
    4
 70
    1
 43
0
 10
52.301648
 20
12.198604
 10
52.301648
 20
12.909804
 42
0.9999999999999999
 10
52.09844799999999
 20
12.909804
 10
52.098448
 20
12.198604
  0
CIRCLE
  5
206
100
AcDbEntity
  8
0
  6
ByLayer
 62
  256
370
   -1
100
AcDbCircle
 10
20.41652
 20
85.1281
 40
0.127
  0
CIRCLE
  5
207
100
AcDbEntity
  8
0
  6
ByLayer
 62
  256
370
   -1
100
AcDbCircle
 10
89.2175
 20
85.1281
 40
0.127
  0
LWPOLYLINE
  5
208
100
AcDbEntity
  8
0
  6
ByLayer
 62
  256
370
   -1
100
AcDbPolyline
 90
    4
 70
    1
 43
0
 10
21.29028
 20
88.35136
 10
21.29028
 20
90.10396
 10
21.59508
 20
90.10396
 10
21.59508
 20
88.35136
  0
LWPOLYLINE
  5
209
100
AcDbEntity
  8
0
  6
ByLayer
 62
  256
370
   -1
100
AcDbPolyline
 90
    4
 70
    1
 43
0
 10
21.79066
 20
88.35136
 10
21.79066
 20
90.10396
 10
22.09546
 20
90.10396
 10
22.09546
 20
88.35136
  0
LWPOLYLINE
  5
20A
100
AcDbEntity
  8
0
  6
ByLayer
 62
  256
370
   -1
100
AcDbPolyline
 90
    4
 70
    1
 43
0
 10
22.29104
 20
88.35136
 10
22.29104
 20
90.10396
 10
22.59584
 20
90.10396
 10
22.59584
 20
88.35136
  0
LWPOLYLINE
  5
20B
100
AcDbEntity
  8
0
  6
ByLayer
 62
  256
370
   -1
100
AcDbPolyline
 90
    4
 70
    1
 43
0
 10
22.79142
 20
88.35136
 10
22.79142
 20
90.10396
 10
23.09622
 20
90.10396
 10
23.09622
 20
88.35136
  0
LWPOLYLINE
  5
20C
100
AcDbEntity
  8
0
  6
ByLayer
 62
  256
370
   -1
100
AcDbPolyline
 90
    4
 70
    1
 43
0
 10
23.28926
 20
88.35136
 10
23.28926
 20
90.10396
 10
23.59406
 20
90.10396
 10
23.59406
 20
88.35136
  0
LWPOLYLINE
  5
20D
100
AcDbEntity
  8
0
  6
ByLayer
 62
  256
370
   -1
100
AcDbPolyline
 90
    4
 70
    1
 43
0
 10
23.78964
 20
88.35136
 10
23.78964
 20
90.10396
 10
24.09444
 20
90.10396
 10
24.09444
 20
88.35136
  0
LWPOLYLINE
  5
20E
100
AcDbEntity
  8
0
  6
ByLayer
 62
  256
370
   -1
100
AcDbPolyline
 90
    4
 70
    1
 43
0
 10
24.29002
 20
88.35136
 10
24.29002
 20
90.10396
 10
24.59482
 20
90.10396
 10
24.59482
 20
88.35136
  0
LWPOLYLINE
  5
20F
100
AcDbEntity
  8
0
  6
ByLayer
 62
  256
370
   -1
100
AcDbPolyline
 90
    4
 70
    1
 43
0
 10
24.7904
 20
88.35136
 10
24.7904
 20
90.10396
 10
25.0952
 20
90.10396
 10
25.0952
 20
88.35136
  0
LWPOLYLINE
  5
210
100
AcDbEntity
  8
0
  6
ByLayer
 62
  256
370
   -1
100
AcDbPolyline
 90
    4
 70
    1
 43
0
 10
25.29078
 20
88.35136
 10
25.29078
 20
90.10396
 10
25.59558
 20
90.10396
 10
25.59558
 20
88.35136
  0
LWPOLYLINE
  5
211
100
AcDbEntity
  8
0
  6
ByLayer
 62
  256
370
   -1
100
AcDbPolyline
 90
    4
 70
    1
 43
0
 10
25.79116
 20
88.35136
 10
25.79116
 20
90.10396
 10
26.09596
 20
90.10396
 10
26.09596
 20
88.35136
  0
LWPOLYLINE
  5
212
100
AcDbEntity
  8
0
  6
ByLayer
 62
  256
370
   -1
100
AcDbPolyline
 90
    4
 70
    1
 43
0
 10
26.289
 20
88.35136
 10
26.289
 20
90.10396
 10
26.5938
 20
90.10396
 10
26.5938
 20
88.35136
  0
LWPOLYLINE
  5
213
100
AcDbEntity
  8
0
  6
ByLayer
 62
  256
370
   -1
100
AcDbPolyline
 90
    4
 70
    1
 43
0
 10
26.78938
 20
88.35136
 10
26.78938
 20
90.10396
 10
27.09418
 20
90.10396
 10
27.09418
 20
88.35136
  0
LWPOLYLINE
  5
214
100
AcDbEntity
  8
0
  6
ByLayer
 62
  256
370
   -1
100
AcDbPolyline
 90
    4
 70
    1
 43
0
 10
27.28976
 20
88.35136
 10
27.28976
 20
90.10396
 10
27.59456
 20
90.10396
 10
27.59456
 20
88.35136
  0
LWPOLYLINE
  5
215
100
AcDbEntity
  8
0
  6
ByLayer
 62
  256
370
   -1
100
AcDbPolyline
 90
    4
 70
    1
 43
0
 10
27.79014
 20
88.35136
 10
27.79014
 20
90.10396
 10
28.09494
 20
90.10396
 10
28.09494
 20
88.35136
  0
LWPOLYLINE
  5
216
100
AcDbEntity
  8
0
  6
ByLayer
 62
  256
370
   -1
100
AcDbPolyline
 90
    4
 70
    1
 43
0
 10
28.29052
 20
88.35136
 10
28.29052
 20
90.10396
 10
28.59532
 20
90.10396
 10
28.59532
 20
88.35136
  0
LWPOLYLINE
  5
217
100
AcDbEntity
  8
0
  6
ByLayer
 62
  256
370
   -1
100
AcDbPolyline
 90
    4
 70
    1
 43
0
 10
28.7909
 20
88.35136
 10
28.7909
 20
90.10396
 10
29.0957
 20
90.10396
 10
29.0957
 20
88.35136
  0
LWPOLYLINE
  5
218
100
AcDbEntity
  8
0
  6
ByLayer
 62
  256
370
   -1
100
AcDbPolyline
 90
    4
 70
    1
 43
0
 10
29.29128
 20
88.35136
 10
29.29128
 20
90.10396
 10
29.59608
 20
90.10396
 10
29.59608
 20
88.35136
  0
LWPOLYLINE
  5
219
100
AcDbEntity
  8
0
  6
ByLayer
 62
  256
370
   -1
100
AcDbPolyline
 90
    4
 70
    1
 43
0
 10
29.78912
 20
88.35136
 10
29.78912
 20
90.10396
 10
30.09392
 20
90.10396
 10
30.09392
 20
88.35136
  0
LWPOLYLINE
  5
21A
100
AcDbEntity
  8
0
  6
ByLayer
 62
  256
370
   -1
100
AcDbPolyline
 90
    4
 70
    1
 43
0
 10
30.2895
 20
88.35136
 10
30.2895
 20
90.10396
 10
30.5943
 20
90.10396
 10
30.5943
 20
88.35136
  0
LWPOLYLINE
  5
21B
100
AcDbEntity
  8
0
  6
ByLayer
 62
  256
370
   -1
100
AcDbPolyline
 90
    4
 70
    1
 43
0
 10
30.78988
 20
88.35136
 10
30.78988
 20
90.10396
 10
31.09468
 20
90.10396
 10
31.09468
 20
88.35136
  0
LWPOLYLINE
  5
21C
100
AcDbEntity
  8
0
  6
ByLayer
 62
  256
370
   -1
100
AcDbPolyline
 90
    4
 70
    1
 43
0
 10
31.29026
 20
88.35136
 10
31.29026
 20
90.10396
 10
31.59506
 20
90.10396
 10
31.59506
 20
88.35136
  0
LWPOLYLINE
  5
21D
100
AcDbEntity
  8
0
  6
ByLayer
 62
  256
370
   -1
100
AcDbPolyline
 90
    4
 70
    1
 43
0
 10
31.79064
 20
88.35136
 10
31.79064
 20
90.10396
 10
32.09544
 20
90.10396
 10
32.09544
 20
88.35136
  0
LWPOLYLINE
  5
21E
100
AcDbEntity
  8
0
  6
ByLayer
 62
  256
370
   -1
100
AcDbPolyline
 90
    4
 70
    1
 43
0
 10
32.29102
 20
88.35136
 10
32.29102
 20
90.10396
 10
32.59582
 20
90.10396
 10
32.59582
 20
88.35136
  0
LWPOLYLINE
  5
21F
100
AcDbEntity
  8
0
  6
ByLayer
 62
  256
370
   -1
100
AcDbPolyline
 90
    4
 70
    1
 43
0
 10
32.7914
 20
88.35136
 10
32.7914
 20
90.10396
 10
33.0962
 20
90.10396
 10
33.0962
 20
88.35136
  0
LWPOLYLINE
  5
220
100
AcDbEntity
  8
0
  6
ByLayer
 62
  256
370
   -1
100
AcDbPolyline
 90
    4
 70
    1
 43
0
 10
33.28924
 20
88.35136
 10
33.28924
 20
90.10396
 10
33.59404
 20
90.10396
 10
33.59404
 20
88.35136
  0
LWPOLYLINE
  5
221
100
AcDbEntity
  8
0
  6
ByLayer
 62
  256
370
   -1
100
AcDbPolyline
 90
    4
 70
    1
 43
0
 10
33.78962
 20
88.35136
 10
33.78962
 20
90.10396
 10
34.09442
 20
90.10396
 10
34.09442
 20
88.35136
  0
LWPOLYLINE
  5
222
100
AcDbEntity
  8
0
  6
ByLayer
 62
  256
370
   -1
100
AcDbPolyline
 90
    4
 70
    1
 43
0
 10
34.29
 20
88.35136
 10
34.29
 20
90.10396
 10
34.5948
 20
90.10396
 10
34.5948
 20
88.35136
  0
LWPOLYLINE
  5
223
100
AcDbEntity
  8
0
  6
ByLayer
 62
  256
370
   -1
100
AcDbPolyline
 90
    4
 70
    1
 43
0
 10
34.79038
 20
88.35136
 10
34.79038
 20
90.10396
 10
35.09518
 20
90.10396
 10
35.09518
 20
88.35136
  0
LWPOLYLINE
  5
224
100
AcDbEntity
  8
0
  6
ByLayer
 62
  256
370
   -1
100
AcDbPolyline
 90
    4
 70
    1
 43
0
 10
35.29076
 20
88.35136
 10
35.29076
 20
90.10396
 10
35.59556
 20
90.10396
 10
35.59556
 20
88.35136
  0
LWPOLYLINE
  5
225
100
AcDbEntity
  8
0
  6
ByLayer
 62
  256
370
   -1
100
AcDbPolyline
 90
    4
 70
    1
 43
0
 10
35.79114
 20
88.35136
 10
35.79114
 20
90.10396
 10
36.09594
 20
90.10396
 10
36.09594
 20
88.35136
  0
LWPOLYLINE
  5
226
100
AcDbEntity
  8
0
  6
ByLayer
 62
  256
370
   -1
100
AcDbPolyline
 90
    4
 70
    1
 43
0
 10
36.29152
 20
88.35136
 10
36.29152
 20
90.10396
 10
36.59632
 20
90.10396
 10
36.59632
 20
88.35136
  0
LWPOLYLINE
  5
227
100
AcDbEntity
  8
0
  6
ByLayer
 62
  256
370
   -1
100
AcDbPolyline
 90
    4
 70
    1
 43
0
 10
36.78936
 20
88.35136
 10
36.78936
 20
90.10396
 10
37.09416
 20
90.10396
 10
37.09416
 20
88.35136
  0
LWPOLYLINE
  5
228
100
AcDbEntity
  8
0
  6
ByLayer
 62
  256
370
   -1
100
AcDbPolyline
 90
    4
 70
    1
 43
0
 10
37.28974
 20
88.35136
 10
37.28974
 20
90.10396
 10
37.59454
 20
90.10396
 10
37.59454
 20
88.35136
  0
LWPOLYLINE
  5
229
100
AcDbEntity
  8
0
  6
ByLayer
 62
  256
370
   -1
100
AcDbPolyline
 90
    4
 70
    1
 43
0
 10
37.79012
 20
88.35136
 10
37.79012
 20
90.10396
 10
38.09492
 20
90.10396
 10
38.09492
 20
88.35136
  0
LWPOLYLINE
  5
22A
100
AcDbEntity
  8
0
  6
ByLayer
 62
  256
370
   -1
100
AcDbPolyline
 90
    4
 70
    1
 43
0
 10
38.2905
 20
88.35136
 10
38.2905
 20
90.10396
 10
38.5953
 20
90.10396
 10
38.5953
 20
88.35136
  0
LWPOLYLINE
  5
22B
100
AcDbEntity
  8
0
  6
ByLayer
 62
  256
370
   -1
100
AcDbPolyline
 90
    4
 70
    1
 43
0
 10
38.79088
 20
88.35136
 10
38.79088
 20
90.10396
 10
39.09568
 20
90.10396
 10
39.09568
 20
88.35136
  0
LWPOLYLINE
  5
22C
100
AcDbEntity
  8
0
  6
ByLayer
 62
  256
370
   -1
100
AcDbPolyline
 90
    4
 70
    1
 43
0
 10
39.29126
 20
88.35136
 10
39.29126
 20
90.10396
 10
39.59606
 20
90.10396
 10
39.59606
 20
88.35136
  0
LWPOLYLINE
  5
22D
100
AcDbEntity
  8
0
  6
ByLayer
 62
  256
370
   -1
100
AcDbPolyline
 90
    4
 70
    1
 43
0
 10
39.79164
 20
88.35136
 10
39.79164
 20
90.10396
 10
40.09644
 20
90.10396
 10
40.09644
 20
88.35136
  0
LWPOLYLINE
  5
22E
100
AcDbEntity
  8
0
  6
ByLayer
 62
  256
370
   -1
100
AcDbPolyline
 90
    4
 70
    1
 43
0
 10
40.28948
 20
88.35136
 10
40.28948
 20
90.10396
 10
40.59428
 20
90.10396
 10
40.59428
 20
88.35136
  0
LWPOLYLINE
  5
22F
100
AcDbEntity
  8
0
  6
ByLayer
 62
  256
370
   -1
100
AcDbPolyline
 90
    4
 70
    1
 43
0
 10
40.78986
 20
88.35136
 10
40.78986
 20
90.10396
 10
41.09466
 20
90.10396
 10
41.09466
 20
88.35136
  0
LWPOLYLINE
  5
230
100
AcDbEntity
  8
0
  6
ByLayer
 62
  256
370
   -1
100
AcDbPolyline
 90
    4
 70
    1
 43
0
 10
41.29024
 20
88.35136
 10
41.29024
 20
90.10396
 10
41.59504
 20
90.10396
 10
41.59504
 20
88.35136
  0
LWPOLYLINE
  5
231
100
AcDbEntity
  8
0
  6
ByLayer
 62
  256
370
   -1
100
AcDbPolyline
 90
    4
 70
    1
 43
0
 10
41.79062
 20
88.35136
 10
41.79062
 20
90.10396
 10
42.09542
 20
90.10396
 10
42.09542
 20
88.35136
  0
LWPOLYLINE
  5
232
100
AcDbEntity
  8
0
  6
ByLayer
 62
  256
370
   -1
100
AcDbPolyline
 90
    4
 70
    1
 43
0
 10
42.291
 20
88.35136
 10
42.291
 20
90.10396
 10
42.5958
 20
90.10396
 10
42.5958
 20
88.35136
  0
LWPOLYLINE
  5
233
100
AcDbEntity
  8
0
  6
ByLayer
 62
  256
370
   -1
100
AcDbPolyline
 90
    4
 70
    1
 43
0
 10
42.79138
 20
88.35136
 10
42.79138
 20
90.10396
 10
43.09618
 20
90.10396
 10
43.09618
 20
88.35136
  0
LWPOLYLINE
  5
234
100
AcDbEntity
  8
0
  6
ByLayer
 62
  256
370
   -1
100
AcDbPolyline
 90
    4
 70
    1
 43
0
 10
43.28922
 20
88.35136
 10
43.28922
 20
90.10396
 10
43.59402
 20
90.10396
 10
43.59402
 20
88.35136
  0
LWPOLYLINE
  5
235
100
AcDbEntity
  8
0
  6
ByLayer
 62
  256
370
   -1
100
AcDbPolyline
 90
    4
 70
    1
 43
0
 10
43.7896
 20
88.35136
 10
43.7896
 20
90.10396
 10
44.0944
 20
90.10396
 10
44.0944
 20
88.35136
  0
LWPOLYLINE
  5
236
100
AcDbEntity
  8
0
  6
ByLayer
 62
  256
370
   -1
100
AcDbPolyline
 90
    4
 70
    1
 43
0
 10
44.28998
 20
88.35136
 10
44.28998
 20
90.10396
 10
44.59478
 20
90.10396
 10
44.59478
 20
88.35136
  0
LWPOLYLINE
  5
237
100
AcDbEntity
  8
0
  6
ByLayer
 62
  256
370
   -1
100
AcDbPolyline
 90
    4
 70
    1
 43
0
 10
44.79036
 20
88.35136
 10
44.79036
 20
90.10396
 10
45.09516
 20
90.10396
 10
45.09516
 20
88.35136
  0
LWPOLYLINE
  5
238
100
AcDbEntity
  8
0
  6
ByLayer
 62
  256
370
   -1
100
AcDbPolyline
 90
    4
 70
    1
 43
0
 10
45.29074
 20
88.35136
 10
45.29074
 20
90.10396
 10
45.59554
 20
90.10396
 10
45.59554
 20
88.35136
  0
LWPOLYLINE
  5
239
100
AcDbEntity
  8
0
  6
ByLayer
 62
  256
370
   -1
100
AcDbPolyline
 90
    4
 70
    1
 43
0
 10
45.79112
 20
88.35136
 10
45.79112
 20
90.10396
 10
46.09592
 20
90.10396
 10
46.09592
 20
88.35136
  0
LWPOLYLINE
  5
23A
100
AcDbEntity
  8
0
  6
ByLayer
 62
  256
370
   -1
100
AcDbPolyline
 90
    4
 70
    1
 43
0
 10
46.28896
 20
88.35136
 10
46.28896
 20
90.10396
 10
46.59376
 20
90.10396
 10
46.59376
 20
88.35136
  0
LWPOLYLINE
  5
23B
100
AcDbEntity
  8
0
  6
ByLayer
 62
  256
370
   -1
100
AcDbPolyline
 90
    4
 70
    1
 43
0
 10
46.78934
 20
88.35136
 10
46.78934
 20
90.10396
 10
47.09414
 20
90.10396
 10
47.09414
 20
88.35136
  0
LWPOLYLINE
  5
23C
100
AcDbEntity
  8
0
  6
ByLayer
 62
  256
370
   -1
100
AcDbPolyline
 90
    4
 70
    1
 43
0
 10
47.28972
 20
88.35136
 10
47.28972
 20
90.10396
 10
47.59452
 20
90.10396
 10
47.59452
 20
88.35136
  0
LWPOLYLINE
  5
23D
100
AcDbEntity
  8
0
  6
ByLayer
 62
  256
370
   -1
100
AcDbPolyline
 90
    4
 70
    1
 43
0
 10
47.7901
 20
88.35136
 10
47.7901
 20
90.10396
 10
48.0949
 20
90.10396
 10
48.0949
 20
88.35136
  0
LWPOLYLINE
  5
23E
100
AcDbEntity
  8
0
  6
ByLayer
 62
  256
370
   -1
100
AcDbPolyline
 90
    4
 70
    1
 43
0
 10
48.29048
 20
88.35136
 10
48.29048
 20
90.10396
 10
48.59528
 20
90.10396
 10
48.59528
 20
88.35136
  0
LWPOLYLINE
  5
23F
100
AcDbEntity
  8
0
  6
ByLayer
 62
  256
370
   -1
100
AcDbPolyline
 90
    4
 70
    1
 43
0
 10
48.79086
 20
88.35136
 10
48.79086
 20
90.10396
 10
49.09566
 20
90.10396
 10
49.09566
 20
88.35136
  0
LWPOLYLINE
  5
240
100
AcDbEntity
  8
0
  6
ByLayer
 62
  256
370
   -1
100
AcDbPolyline
 90
    4
 70
    1
 43
0
 10
49.29124
 20
88.35136
 10
49.29124
 20
90.10396
 10
49.59604
 20
90.10396
 10
49.59604
 20
88.35136
  0
LWPOLYLINE
  5
241
100
AcDbEntity
  8
0
  6
ByLayer
 62
  256
370
   -1
100
AcDbPolyline
 90
    4
 70
    1
 43
0
 10
49.78908
 20
88.35136
 10
49.78908
 20
90.10396
 10
50.09388
 20
90.10396
 10
50.09388
 20
88.35136
  0
LWPOLYLINE
  5
242
100
AcDbEntity
  8
0
  6
ByLayer
 62
  256
370
   -1
100
AcDbPolyline
 90
    4
 70
    1
 43
0
 10
50.28946
 20
88.35136
 10
50.28946
 20
90.10396
 10
50.59426
 20
90.10396
 10
50.59426
 20
88.35136
  0
LWPOLYLINE
  5
243
100
AcDbEntity
  8
0
  6
ByLayer
 62
  256
370
   -1
100
AcDbPolyline
 90
    4
 70
    1
 43
0
 10
50.78984
 20
88.35136
 10
50.78984
 20
90.10396
 10
51.09464
 20
90.10396
 10
51.09464
 20
88.35136
  0
LWPOLYLINE
  5
244
100
AcDbEntity
  8
0
  6
ByLayer
 62
  256
370
   -1
100
AcDbPolyline
 90
    4
 70
    1
 43
0
 10
51.29022
 20
88.35136
 10
51.29022
 20
90.10396
 10
51.59502
 20
90.10396
 10
51.59502
 20
88.35136
  0
LWPOLYLINE
  5
245
100
AcDbEntity
  8
0
  6
ByLayer
 62
  256
370
   -1
100
AcDbPolyline
 90
    4
 70
    1
 43
0
 10
51.7906
 20
88.35136
 10
51.7906
 20
90.10396
 10
52.0954
 20
90.10396
 10
52.0954
 20
88.35136
  0
LWPOLYLINE
  5
246
100
AcDbEntity
  8
0
  6
ByLayer
 62
  256
370
   -1
100
AcDbPolyline
 90
    4
 70
    1
 43
0
 10
52.29098
 20
88.35136
 10
52.29098
 20
90.10396
 10
52.59578
 20
90.10396
 10
52.59578
 20
88.35136
  0
LWPOLYLINE
  5
247
100
AcDbEntity
  8
0
  6
ByLayer
 62
  256
370
   -1
100
AcDbPolyline
 90
    4
 70
    1
 43
0
 10
52.79136
 20
88.35136
 10
52.79136
 20
90.10396
 10
53.09616
 20
90.10396
 10
53.09616
 20
88.35136
  0
LWPOLYLINE
  5
248
100
AcDbEntity
  8
0
  6
ByLayer
 62
  256
370
   -1
100
AcDbPolyline
 90
    4
 70
    1
 43
0
 10
53.2892
 20
88.35136
 10
53.2892
 20
90.10396
 10
53.594
 20
90.10396
 10
53.594
 20
88.35136
  0
LWPOLYLINE
  5
249
100
AcDbEntity
  8
0
  6
ByLayer
 62
  256
370
   -1
100
AcDbPolyline
 90
    4
 70
    1
 43
0
 10
53.78958
 20
88.35136
 10
53.78958
 20
90.10396
 10
54.09438
 20
90.10396
 10
54.09438
 20
88.35136
  0
LWPOLYLINE
  5
24A
100
AcDbEntity
  8
0
  6
ByLayer
 62
  256
370
   -1
100
AcDbPolyline
 90
    4
 70
    1
 43
0
 10
54.28996
 20
88.35136
 10
54.28996
 20
90.10396
 10
54.59476
 20
90.10396
 10
54.59476
 20
88.35136
  0
LWPOLYLINE
  5
24B
100
AcDbEntity
  8
0
  6
ByLayer
 62
  256
370
   -1
100
AcDbPolyline
 90
    4
 70
    1
 43
0
 10
54.79034
 20
88.35136
 10
54.79034
 20
90.10396
 10
55.09514
 20
90.10396
 10
55.09514
 20
88.35136
  0
LWPOLYLINE
  5
24C
100
AcDbEntity
  8
0
  6
ByLayer
 62
  256
370
   -1
100
AcDbPolyline
 90
    4
 70
    1
 43
0
 10
55.29072
 20
88.35136
 10
55.29072
 20
90.10396
 10
55.59552
 20
90.10396
 10
55.59552
 20
88.35136
  0
LWPOLYLINE
  5
24D
100
AcDbEntity
  8
0
  6
ByLayer
 62
  256
370
   -1
100
AcDbPolyline
 90
    4
 70
    1
 43
0
 10
55.7911
 20
88.35136
 10
55.7911
 20
90.10396
 10
56.0959
 20
90.10396
 10
56.0959
 20
88.35136
  0
LWPOLYLINE
  5
24E
100
AcDbEntity
  8
0
  6
ByLayer
 62
  256
370
   -1
100
AcDbPolyline
 90
    4
 70
    1
 43
0
 10
56.29148
 20
88.35136
 10
56.29148
 20
90.10396
 10
56.59628
 20
90.10396
 10
56.59628
 20
88.35136
  0
LWPOLYLINE
  5
24F
100
AcDbEntity
  8
0
  6
ByLayer
 62
  256
370
   -1
100
AcDbPolyline
 90
    4
 70
    1
 43
0
 10
56.78932
 20
88.35136
 10
56.78932
 20
90.10396
 10
57.09412
 20
90.10396
 10
57.09412
 20
88.35136
  0
LWPOLYLINE
  5
250
100
AcDbEntity
  8
0
  6
ByLayer
 62
  256
370
   -1
100
AcDbPolyline
 90
    4
 70
    1
 43
0
 10
21.5392
 20
80.15224000000001
 10
21.5392
 20
81.90483999999999
 10
21.844
 20
81.90483999999999
 10
21.844
 20
80.15224000000001
  0
LWPOLYLINE
  5
251
100
AcDbEntity
  8
0
  6
ByLayer
 62
  256
370
   -1
100
AcDbPolyline
 90
    4
 70
    1
 43
0
 10
22.03958
 20
80.15224000000001
 10
22.03958
 20
81.90483999999999
 10
22.34438
 20
81.90483999999999
 10
22.34438
 20
80.15224000000001
  0
LWPOLYLINE
  5
252
100
AcDbEntity
  8
0
  6
ByLayer
 62
  256
370
   -1
100
AcDbPolyline
 90
    4
 70
    1
 43
0
 10
22.53996
 20
80.15224000000001
 10
22.53996
 20
81.90483999999999
 10
22.84476
 20
81.90483999999999
 10
22.84476
 20
80.15224000000001
  0
LWPOLYLINE
  5
253
100
AcDbEntity
  8
0
  6
ByLayer
 62
  256
370
   -1
100
AcDbPolyline
 90
    4
 70
    1
 43
0
 10
23.04034
 20
80.15224000000001
 10
23.04034
 20
81.90483999999999
 10
23.34514
 20
81.90483999999999
 10
23.34514
 20
80.15224000000001
  0
LWPOLYLINE
  5
254
100
AcDbEntity
  8
0
  6
ByLayer
 62
  256
370
   -1
100
AcDbPolyline
 90
    4
 70
    1
 43
0
 10
23.54072
 20
80.15224000000001
 10
23.54072
 20
81.90483999999999
 10
23.84552
 20
81.90483999999999
 10
23.84552
 20
80.15224000000001
  0
LWPOLYLINE
  5
255
100
AcDbEntity
  8
0
  6
ByLayer
 62
  256
370
   -1
100
AcDbPolyline
 90
    4
 70
    1
 43
0
 10
24.0411
 20
80.15224000000001
 10
24.0411
 20
81.90483999999999
 10
24.3459
 20
81.90483999999999
 10
24.3459
 20
80.15224000000001
  0
LWPOLYLINE
  5
256
100
AcDbEntity
  8
0
  6
ByLayer
 62
  256
370
   -1
100
AcDbPolyline
 90
    4
 70
    1
 43
0
 10
24.54148
 20
80.15224000000001
 10
24.54148
 20
81.90483999999999
 10
24.84628
 20
81.90483999999999
 10
24.84628
 20
80.15224000000001
  0
LWPOLYLINE
  5
257
100
AcDbEntity
  8
0
  6
ByLayer
 62
  256
370
   -1
100
AcDbPolyline
 90
    4
 70
    1
 43
0
 10
25.03932
 20
80.15224000000001
 10
25.03932
 20
81.90483999999999
 10
25.34412
 20
81.90483999999999
 10
25.34412
 20
80.15224000000001
  0
LWPOLYLINE
  5
258
100
AcDbEntity
  8
0
  6
ByLayer
 62
  256
370
   -1
100
AcDbPolyline
 90
    4
 70
    1
 43
0
 10
25.5397
 20
80.15224000000001
 10
25.5397
 20
81.90483999999999
 10
25.8445
 20
81.90483999999999
 10
25.8445
 20
80.15224000000001
  0
LWPOLYLINE
  5
259
100
AcDbEntity
  8
0
  6
ByLayer
 62
  256
370
   -1
100
AcDbPolyline
 90
    4
 70
    1
 43
0
 10
26.04008
 20
80.15224000000001
 10
26.04008
 20
81.90483999999999
 10
26.34488
 20
81.90483999999999
 10
26.34488
 20
80.15224000000001
  0
LWPOLYLINE
  5
25A
100
AcDbEntity
  8
0
  6
ByLayer
 62
  256
370
   -1
100
AcDbPolyline
 90
    4
 70
    1
 43
0
 10
26.54046
 20
80.15224000000001
 10
26.54046
 20
81.90483999999999
 10
26.84526
 20
81.90483999999999
 10
26.84526
 20
80.15224000000001
  0
LWPOLYLINE
  5
25B
100
AcDbEntity
  8
0
  6
ByLayer
 62
  256
370
   -1
100
AcDbPolyline
 90
    4
 70
    1
 43
0
 10
27.04084
 20
80.15224000000001
 10
27.04084
 20
81.90483999999999
 10
27.34564
 20
81.90483999999999
 10
27.34564
 20
80.15224000000001
  0
LWPOLYLINE
  5
25C
100
AcDbEntity
  8
0
  6
ByLayer
 62
  256
370
   -1
100
AcDbPolyline
 90
    4
 70
    1
 43
0
 10
27.54122
 20
80.15224000000001
 10
27.54122
 20
81.90483999999999
 10
27.84602
 20
81.90483999999999
 10
27.84602
 20
80.15224000000001
  0
LWPOLYLINE
  5
25D
100
AcDbEntity
  8
0
  6
ByLayer
 62
  256
370
   -1
100
AcDbPolyline
 90
    4
 70
    1
 43
0
 10
28.0416
 20
80.15224000000001
 10
28.0416
 20
81.90483999999999
 10
28.3464
 20
81.90483999999999
 10
28.3464
 20
80.15224000000001
  0
LWPOLYLINE
  5
25E
100
AcDbEntity
  8
0
  6
ByLayer
 62
  256
370
   -1
100
AcDbPolyline
 90
    4
 70
    1
 43
0
 10
28.53944
 20
80.15224000000001
 10
28.53944
 20
81.90483999999999
 10
28.84424
 20
81.90483999999999
 10
28.84424
 20
80.15224000000001
  0
LWPOLYLINE
  5
25F
100
AcDbEntity
  8
0
  6
ByLayer
 62
  256
370
   -1
100
AcDbPolyline
 90
    4
 70
    1
 43
0
 10
29.03982
 20
80.15224000000001
 10
29.03982
 20
81.90483999999999
 10
29.34462
 20
81.90483999999999
 10
29.34462
 20
80.15224000000001
  0
LWPOLYLINE
  5
260
100
AcDbEntity
  8
0
  6
ByLayer
 62
  256
370
   -1
100
AcDbPolyline
 90
    4
 70
    1
 43
0
 10
29.5402
 20
80.15224000000001
 10
29.5402
 20
81.90483999999999
 10
29.845
 20
81.90483999999999
 10
29.845
 20
80.15224000000001
  0
LWPOLYLINE
  5
261
100
AcDbEntity
  8
0
  6
ByLayer
 62
  256
370
   -1
100
AcDbPolyline
 90
    4
 70
    1
 43
0
 10
30.04058
 20
80.15224000000001
 10
30.04058
 20
81.90483999999999
 10
30.34538
 20
81.90483999999999
 10
30.34538
 20
80.15224000000001
  0
LWPOLYLINE
  5
262
100
AcDbEntity
  8
0
  6
ByLayer
 62
  256
370
   -1
100
AcDbPolyline
 90
    4
 70
    1
 43
0
 10
30.54096
 20
80.15224000000001
 10
30.54096
 20
81.90483999999999
 10
30.84576
 20
81.90483999999999
 10
30.84576
 20
80.15224000000001
  0
LWPOLYLINE
  5
263
100
AcDbEntity
  8
0
  6
ByLayer
 62
  256
370
   -1
100
AcDbPolyline
 90
    4
 70
    1
 43
0
 10
31.04134
 20
80.15224000000001
 10
31.04134
 20
81.90483999999999
 10
31.34614
 20
81.90483999999999
 10
31.34614
 20
80.15224000000001
  0
LWPOLYLINE
  5
264
100
AcDbEntity
  8
0
  6
ByLayer
 62
  256
370
   -1
100
AcDbPolyline
 90
    4
 70
    1
 43
0
 10
31.53918
 20
80.15224000000001
 10
31.53918
 20
81.90483999999999
 10
31.84398
 20
81.90483999999999
 10
31.84398
 20
80.15224000000001
  0
LWPOLYLINE
  5
265
100
AcDbEntity
  8
0
  6
ByLayer
 62
  256
370
   -1
100
AcDbPolyline
 90
    4
 70
    1
 43
0
 10
32.03956
 20
80.15224000000001
 10
32.03956
 20
81.90483999999999
 10
32.34436
 20
81.90483999999999
 10
32.34436
 20
80.15224000000001
  0
LWPOLYLINE
  5
266
100
AcDbEntity
  8
0
  6
ByLayer
 62
  256
370
   -1
100
AcDbPolyline
 90
    4
 70
    1
 43
0
 10
32.53994
 20
80.15224000000001
 10
32.53994
 20
81.90483999999999
 10
32.84474
 20
81.90483999999999
 10
32.84474
 20
80.15224000000001
  0
LWPOLYLINE
  5
267
100
AcDbEntity
  8
0
  6
ByLayer
 62
  256
370
   -1
100
AcDbPolyline
 90
    4
 70
    1
 43
0
 10
33.04032
 20
80.15224000000001
 10
33.04032
 20
81.90483999999999
 10
33.34512
 20
81.90483999999999
 10
33.34512
 20
80.15224000000001
  0
LWPOLYLINE
  5
268
100
AcDbEntity
  8
0
  6
ByLayer
 62
  256
370
   -1
100
AcDbPolyline
 90
    4
 70
    1
 43
0
 10
33.5407
 20
80.15224000000001
 10
33.5407
 20
81.90483999999999
 10
33.8455
 20
81.90483999999999
 10
33.8455
 20
80.15224000000001
  0
LWPOLYLINE
  5
269
100
AcDbEntity
  8
0
  6
ByLayer
 62
  256
370
   -1
100
AcDbPolyline
 90
    4
 70
    1
 43
0
 10
34.04108
 20
80.15224000000001
 10
34.04108
 20
81.90483999999999
 10
34.34588
 20
81.90483999999999
 10
34.34588
 20
80.15224000000001
  0
LWPOLYLINE
  5
26A
100
AcDbEntity
  8
0
  6
ByLayer
 62
  256
370
   -1
100
AcDbPolyline
 90
    4
 70
    1
 43
0
 10
34.53892
 20
80.15224000000001
 10
34.53892
 20
81.90483999999999
 10
34.84372
 20
81.90483999999999
 10
34.84372
 20
80.15224000000001
  0
LWPOLYLINE
  5
26B
100
AcDbEntity
  8
0
  6
ByLayer
 62
  256
370
   -1
100
AcDbPolyline
 90
    4
 70
    1
 43
0
 10
35.0393
 20
80.15224000000001
 10
35.0393
 20
81.90483999999999
 10
35.3441
 20
81.90483999999999
 10
35.3441
 20
80.15224000000001
  0
LWPOLYLINE
  5
26C
100
AcDbEntity
  8
0
  6
ByLayer
 62
  256
370
   -1
100
AcDbPolyline
 90
    4
 70
    1
 43
0
 10
35.53968
 20
80.15224000000001
 10
35.53968
 20
81.90483999999999
 10
35.84448
 20
81.90483999999999
 10
35.84448
 20
80.15224000000001
  0
LWPOLYLINE
  5
26D
100
AcDbEntity
  8
0
  6
ByLayer
 62
  256
370
   -1
100
AcDbPolyline
 90
    4
 70
    1
 43
0
 10
36.04006
 20
80.15224000000001
 10
36.04006
 20
81.90483999999999
 10
36.34486
 20
81.90483999999999
 10
36.34486
 20
80.15224000000001
  0
LWPOLYLINE
  5
26E
100
AcDbEntity
  8
0
  6
ByLayer
 62
  256
370
   -1
100
AcDbPolyline
 90
    4
 70
    1
 43
0
 10
36.54044
 20
80.15224000000001
 10
36.54044
 20
81.90483999999999
 10
36.84524
 20
81.90483999999999
 10
36.84524
 20
80.15224000000001
  0
LWPOLYLINE
  5
26F
100
AcDbEntity
  8
0
  6
ByLayer
 62
  256
370
   -1
100
AcDbPolyline
 90
    4
 70
    1
 43
0
 10
37.04082
 20
80.15224000000001
 10
37.04082
 20
81.90483999999999
 10
37.34562
 20
81.90483999999999
 10
37.34562
 20
80.15224000000001
  0
LWPOLYLINE
  5
270
100
AcDbEntity
  8
0
  6
ByLayer
 62
  256
370
   -1
100
AcDbPolyline
 90
    4
 70
    1
 43
0
 10
37.5412
 20
80.15224000000001
 10
37.5412
 20
81.90483999999999
 10
37.846
 20
81.90483999999999
 10
37.846
 20
80.15224000000001
  0
LWPOLYLINE
  5
271
100
AcDbEntity
  8
0
  6
ByLayer
 62
  256
370
   -1
100
AcDbPolyline
 90
    4
 70
    1
 43
0
 10
38.03904
 20
80.15224000000001
 10
38.03904
 20
81.90483999999999
 10
38.34384
 20
81.90483999999999
 10
38.34384
 20
80.15224000000001
  0
LWPOLYLINE
  5
272
100
AcDbEntity
  8
0
  6
ByLayer
 62
  256
370
   -1
100
AcDbPolyline
 90
    4
 70
    1
 43
0
 10
38.53942
 20
80.15224000000001
 10
38.53942
 20
81.90483999999999
 10
38.84422
 20
81.90483999999999
 10
38.84422
 20
80.15224000000001
  0
LWPOLYLINE
  5
273
100
AcDbEntity
  8
0
  6
ByLayer
 62
  256
370
   -1
100
AcDbPolyline
 90
    4
 70
    1
 43
0
 10
39.0398
 20
80.15224000000001
 10
39.0398
 20
81.90483999999999
 10
39.3446
 20
81.90483999999999
 10
39.3446
 20
80.15224000000001
  0
LWPOLYLINE
  5
274
100
AcDbEntity
  8
0
  6
ByLayer
 62
  256
370
   -1
100
AcDbPolyline
 90
    4
 70
    1
 43
0
 10
39.54018
 20
80.15224000000001
 10
39.54018
 20
81.90483999999999
 10
39.84498
 20
81.90483999999999
 10
39.84498
 20
80.15224000000001
  0
LWPOLYLINE
  5
275
100
AcDbEntity
  8
0
  6
ByLayer
 62
  256
370
   -1
100
AcDbPolyline
 90
    4
 70
    1
 43
0
 10
40.04056
 20
80.15224000000001
 10
40.04056
 20
81.90483999999999
 10
40.34536
 20
81.90483999999999
 10
40.34536
 20
80.15224000000001
  0
LWPOLYLINE
  5
276
100
AcDbEntity
  8
0
  6
ByLayer
 62
  256
370
   -1
100
AcDbPolyline
 90
    4
 70
    1
 43
0
 10
40.54094
 20
80.15224000000001
 10
40.54094
 20
81.90483999999999
 10
40.84574
 20
81.90483999999999
 10
40.84574
 20
80.15224000000001
  0
LWPOLYLINE
  5
277
100
AcDbEntity
  8
0
  6
ByLayer
 62
  256
370
   -1
100
AcDbPolyline
 90
    4
 70
    1
 43
0
 10
41.04132
 20
80.15224000000001
 10
41.04132
 20
81.90483999999999
 10
41.34612
 20
81.90483999999999
 10
41.34612
 20
80.15224000000001
  0
LWPOLYLINE
  5
278
100
AcDbEntity
  8
0
  6
ByLayer
 62
  256
370
   -1
100
AcDbPolyline
 90
    4
 70
    1
 43
0
 10
41.53916
 20
80.15224000000001
 10
41.53916
 20
81.90483999999999
 10
41.84396
 20
81.90483999999999
 10
41.84396
 20
80.15224000000001
  0
LWPOLYLINE
  5
279
100
AcDbEntity
  8
0
  6
ByLayer
 62
  256
370
   -1
100
AcDbPolyline
 90
    4
 70
    1
 43
0
 10
42.03954
 20
80.15224000000001
 10
42.03954
 20
81.90483999999999
 10
42.34434
 20
81.90483999999999
 10
42.34434
 20
80.15224000000001
  0
LWPOLYLINE
  5
27A
100
AcDbEntity
  8
0
  6
ByLayer
 62
  256
370
   -1
100
AcDbPolyline
 90
    4
 70
    1
 43
0
 10
42.53992
 20
80.15224000000001
 10
42.53992
 20
81.90483999999999
 10
42.84472
 20
81.90483999999999
 10
42.84472
 20
80.15224000000001
  0
LWPOLYLINE
  5
27B
100
AcDbEntity
  8
0
  6
ByLayer
 62
  256
370
   -1
100
AcDbPolyline
 90
    4
 70
    1
 43
0
 10
43.0403
 20
80.15224000000001
 10
43.0403
 20
81.90483999999999
 10
43.3451
 20
81.90483999999999
 10
43.3451
 20
80.15224000000001
  0
LWPOLYLINE
  5
27C
100
AcDbEntity
  8
0
  6
ByLayer
 62
  256
370
   -1
100
AcDbPolyline
 90
    4
 70
    1
 43
0
 10
43.54068
 20
80.15224000000001
 10
43.54068
 20
81.90483999999999
 10
43.84548
 20
81.90483999999999
 10
43.84548
 20
80.15224000000001
  0
LWPOLYLINE
  5
27D
100
AcDbEntity
  8
0
  6
ByLayer
 62
  256
370
   -1
100
AcDbPolyline
 90
    4
 70
    1
 43
0
 10
44.04106
 20
80.15224000000001
 10
44.04106
 20
81.90483999999999
 10
44.34586
 20
81.90483999999999
 10
44.34586
 20
80.15224000000001
  0
LWPOLYLINE
  5
27E
100
AcDbEntity
  8
0
  6
ByLayer
 62
  256
370
   -1
100
AcDbPolyline
 90
    4
 70
    1
 43
0
 10
44.54144
 20
80.15224000000001
 10
44.54144
 20
81.90483999999999
 10
44.84624
 20
81.90483999999999
 10
44.84624
 20
80.15224000000001
  0
LWPOLYLINE
  5
27F
100
AcDbEntity
  8
0
  6
ByLayer
 62
  256
370
   -1
100
AcDbPolyline
 90
    4
 70
    1
 43
0
 10
45.03928
 20
80.15224000000001
 10
45.03928
 20
81.90483999999999
 10
45.34408
 20
81.90483999999999
 10
45.34408
 20
80.15224000000001
  0
LWPOLYLINE
  5
280
100
AcDbEntity
  8
0
  6
ByLayer
 62
  256
370
   -1
100
AcDbPolyline
 90
    4
 70
    1
 43
0
 10
45.53966
 20
80.15224000000001
 10
45.53966
 20
81.90483999999999
 10
45.84446
 20
81.90483999999999
 10
45.84446
 20
80.15224000000001
  0
LWPOLYLINE
  5
281
100
AcDbEntity
  8
0
  6
ByLayer
 62
  256
370
   -1
100
AcDbPolyline
 90
    4
 70
    1
 43
0
 10
46.04004
 20
80.15224000000001
 10
46.04004
 20
81.90483999999999
 10
46.34484
 20
81.90483999999999
 10
46.34484
 20
80.15224000000001
  0
LWPOLYLINE
  5
282
100
AcDbEntity
  8
0
  6
ByLayer
 62
  256
370
   -1
100
AcDbPolyline
 90
    4
 70
    1
 43
0
 10
46.54042
 20
80.15224000000001
 10
46.54042
 20
81.90483999999999
 10
46.84522
 20
81.90483999999999
 10
46.84522
 20
80.15224000000001
  0
LWPOLYLINE
  5
283
100
AcDbEntity
  8
0
  6
ByLayer
 62
  256
370
   -1
100
AcDbPolyline
 90
    4
 70
    1
 43
0
 10
47.0408
 20
80.15224000000001
 10
47.0408
 20
81.90483999999999
 10
47.3456
 20
81.90483999999999
 10
47.3456
 20
80.15224000000001
  0
LWPOLYLINE
  5
284
100
AcDbEntity
  8
0
  6
ByLayer
 62
  256
370
   -1
100
AcDbPolyline
 90
    4
 70
    1
 43
0
 10
47.54118
 20
80.15224000000001
 10
47.54118
 20
81.90483999999999
 10
47.84598
 20
81.90483999999999
 10
47.84598
 20
80.15224000000001
  0
LWPOLYLINE
  5
285
100
AcDbEntity
  8
0
  6
ByLayer
 62
  256
370
   -1
100
AcDbPolyline
 90
    4
 70
    1
 43
0
 10
48.04156
 20
80.15224000000001
 10
48.04156
 20
81.90483999999999
 10
48.34636
 20
81.90483999999999
 10
48.34636
 20
80.15224000000001
  0
LWPOLYLINE
  5
286
100
AcDbEntity
  8
0
  6
ByLayer
 62
  256
370
   -1
100
AcDbPolyline
 90
    4
 70
    1
 43
0
 10
48.5394
 20
80.15224000000001
 10
48.5394
 20
81.90483999999999
 10
48.8442
 20
81.90483999999999
 10
48.8442
 20
80.15224000000001
  0
LWPOLYLINE
  5
287
100
AcDbEntity
  8
0
  6
ByLayer
 62
  256
370
   -1
100
AcDbPolyline
 90
    4
 70
    1
 43
0
 10
49.03978
 20
80.15224000000001
 10
49.03978
 20
81.90483999999999
 10
49.34458
 20
81.90483999999999
 10
49.34458
 20
80.15224000000001
  0
LWPOLYLINE
  5
288
100
AcDbEntity
  8
0
  6
ByLayer
 62
  256
370
   -1
100
AcDbPolyline
 90
    4
 70
    1
 43
0
 10
49.54016
 20
80.15224000000001
 10
49.54016
 20
81.90483999999999
 10
49.84496
 20
81.90483999999999
 10
49.84496
 20
80.15224000000001
  0
LWPOLYLINE
  5
289
100
AcDbEntity
  8
0
  6
ByLayer
 62
  256
370
   -1
100
AcDbPolyline
 90
    4
 70
    1
 43
0
 10
50.04054
 20
80.15224000000001
 10
50.04054
 20
81.90483999999999
 10
50.34534
 20
81.90483999999999
 10
50.34534
 20
80.15224000000001
  0
LWPOLYLINE
  5
28A
100
AcDbEntity
  8
0
  6
ByLayer
 62
  256
370
   -1
100
AcDbPolyline
 90
    4
 70
    1
 43
0
 10
50.54092
 20
80.15224000000001
 10
50.54092
 20
81.90483999999999
 10
50.84572
 20
81.90483999999999
 10
50.84572
 20
80.15224000000001
  0
LWPOLYLINE
  5
28B
100
AcDbEntity
  8
0
  6
ByLayer
 62
  256
370
   -1
100
AcDbPolyline
 90
    4
 70
    1
 43
0
 10
51.0413
 20
80.15224000000001
 10
51.0413
 20
81.90483999999999
 10
51.3461
 20
81.90483999999999
 10
51.3461
 20
80.15224000000001
  0
LWPOLYLINE
  5
28C
100
AcDbEntity
  8
0
  6
ByLayer
 62
  256
370
   -1
100
AcDbPolyline
 90
    4
 70
    1
 43
0
 10
51.53914
 20
80.15224000000001
 10
51.53914
 20
81.90483999999999
 10
51.84394
 20
81.90483999999999
 10
51.84394
 20
80.15224000000001
  0
LWPOLYLINE
  5
28D
100
AcDbEntity
  8
0
  6
ByLayer
 62
  256
370
   -1
100
AcDbPolyline
 90
    4
 70
    1
 43
0
 10
52.03952
 20
80.15224000000001
 10
52.03952
 20
81.90483999999999
 10
52.34432
 20
81.90483999999999
 10
52.34432
 20
80.15224000000001
  0
LWPOLYLINE
  5
28E
100
AcDbEntity
  8
0
  6
ByLayer
 62
  256
370
   -1
100
AcDbPolyline
 90
    4
 70
    1
 43
0
 10
52.5399
 20
80.15224000000001
 10
52.5399
 20
81.90483999999999
 10
52.8447
 20
81.90483999999999
 10
52.8447
 20
80.15224000000001
  0
LWPOLYLINE
  5
28F
100
AcDbEntity
  8
0
  6
ByLayer
 62
  256
370
   -1
100
AcDbPolyline
 90
    4
 70
    1
 43
0
 10
53.04028
 20
80.15224000000001
 10
53.04028
 20
81.90483999999999
 10
53.34508
 20
81.90483999999999
 10
53.34508
 20
80.15224000000001
  0
LWPOLYLINE
  5
290
100
AcDbEntity
  8
0
  6
ByLayer
 62
  256
370
   -1
100
AcDbPolyline
 90
    4
 70
    1
 43
0
 10
53.54066
 20
80.15224000000001
 10
53.54066
 20
81.90483999999999
 10
53.84546
 20
81.90483999999999
 10
53.84546
 20
80.15224000000001
  0
LWPOLYLINE
  5
291
100
AcDbEntity
  8
0
  6
ByLayer
 62
  256
370
   -1
100
AcDbPolyline
 90
    4
 70
    1
 43
0
 10
54.04104
 20
80.15224000000001
 10
54.04104
 20
81.90483999999999
 10
54.34584
 20
81.90483999999999
 10
54.34584
 20
80.15224000000001
  0
LWPOLYLINE
  5
292
100
AcDbEntity
  8
0
  6
ByLayer
 62
  256
370
   -1
100
AcDbPolyline
 90
    4
 70
    1
 43
0
 10
54.54142
 20
80.15224000000001
 10
54.54142
 20
81.90483999999999
 10
54.84622
 20
81.90483999999999
 10
54.84622
 20
80.15224000000001
  0
LWPOLYLINE
  5
293
100
AcDbEntity
  8
0
  6
ByLayer
 62
  256
370
   -1
100
AcDbPolyline
 90
    4
 70
    1
 43
0
 10
55.03926
 20
80.15224000000001
 10
55.03926
 20
81.90483999999999
 10
55.34406
 20
81.90483999999999
 10
55.34406
 20
80.15224000000001
  0
LWPOLYLINE
  5
294
100
AcDbEntity
  8
0
  6
ByLayer
 62
  256
370
   -1
100
AcDbPolyline
 90
    4
 70
    1
 43
0
 10
55.53964
 20
80.15224000000001
 10
55.53964
 20
81.90483999999999
 10
55.84444
 20
81.90483999999999
 10
55.84444
 20
80.15224000000001
  0
LWPOLYLINE
  5
295
100
AcDbEntity
  8
0
  6
ByLayer
 62
  256
370
   -1
100
AcDbPolyline
 90
    4
 70
    1
 43
0
 10
56.04002
 20
80.15224000000001
 10
56.04002
 20
81.90483999999999
 10
56.34482
 20
81.90483999999999
 10
56.34482
 20
80.15224000000001
  0
LWPOLYLINE
  5
296
100
AcDbEntity
  8
0
  6
ByLayer
 62
  256
370
   -1
100
AcDbPolyline
 90
    4
 70
    1
 43
0
 10
56.5404
 20
80.15224000000001
 10
56.5404
 20
81.90483999999999
 10
56.8452
 20
81.90483999999999
 10
56.8452
 20
80.15224000000001
  0
LWPOLYLINE
  5
297
100
AcDbEntity
  8
0
  6
ByLayer
 62
  256
370
   -1
100
AcDbPolyline
 90
    4
 70
    1
 43
0
 10
57.04078
 20
80.15224000000001
 10
57.04078
 20
81.90483999999999
 10
57.34558
 20
81.90483999999999
 10
57.34558
 20
80.15224000000001
  0
LWPOLYLINE
  5
298
100
AcDbEntity
  8
0
  6
ByLayer
 62
  256
370
   -1
100
AcDbPolyline
 90
    4
 70
    1
 43
0
 10
59.29122
 20
88.35136
 10
59.29122
 20
90.10396
 10
59.59602
 20
90.10396
 10
59.59602
 20
88.35136
  0
LWPOLYLINE
  5
299
100
AcDbEntity
  8
0
  6
ByLayer
 62
  256
370
   -1
100
AcDbPolyline
 90
    4
 70
    1
 43
0
 10
59.7916
 20
88.35136
 10
59.7916
 20
90.10396
 10
60.0964
 20
90.10396
 10
60.0964
 20
88.35136
  0
LWPOLYLINE
  5
29A
100
AcDbEntity
  8
0
  6
ByLayer
 62
  256
370
   -1
100
AcDbPolyline
 90
    4
 70
    1
 43
0
 10
60.28944
 20
88.35136
 10
60.28944
 20
90.10396
 10
60.59424
 20
90.10396
 10
60.59424
 20
88.35136
  0
LWPOLYLINE
  5
29B
100
AcDbEntity
  8
0
  6
ByLayer
 62
  256
370
   -1
100
AcDbPolyline
 90
    4
 70
    1
 43
0
 10
60.78982
 20
88.35136
 10
60.78982
 20
90.10396
 10
61.09462
 20
90.10396
 10
61.09462
 20
88.35136
  0
LWPOLYLINE
  5
29C
100
AcDbEntity
  8
0
  6
ByLayer
 62
  256
370
   -1
100
AcDbPolyline
 90
    4
 70
    1
 43
0
 10
61.2902
 20
88.35136
 10
61.2902
 20
90.10396
 10
61.595
 20
90.10396
 10
61.595
 20
88.35136
  0
LWPOLYLINE
  5
29D
100
AcDbEntity
  8
0
  6
ByLayer
 62
  256
370
   -1
100
AcDbPolyline
 90
    4
 70
    1
 43
0
 10
61.79058
 20
88.35136
 10
61.79058
 20
90.10396
 10
62.09538
 20
90.10396
 10
62.09538
 20
88.35136
  0
LWPOLYLINE
  5
29E
100
AcDbEntity
  8
0
  6
ByLayer
 62
  256
370
   -1
100
AcDbPolyline
 90
    4
 70
    1
 43
0
 10
62.29096
 20
88.35136
 10
62.29096
 20
90.10396
 10
62.59576
 20
90.10396
 10
62.59576
 20
88.35136
  0
LWPOLYLINE
  5
29F
100
AcDbEntity
  8
0
  6
ByLayer
 62
  256
370
   -1
100
AcDbPolyline
 90
    4
 70
    1
 43
0
 10
62.79134
 20
88.35136
 10
62.79134
 20
90.10396
 10
63.09614
 20
90.10396
 10
63.09614
 20
88.35136
  0
LWPOLYLINE
  5
2A0
100
AcDbEntity
  8
0
  6
ByLayer
 62
  256
370
   -1
100
AcDbPolyline
 90
    4
 70
    1
 43
0
 10
63.28918
 20
88.35136
 10
63.28918
 20
90.10396
 10
63.59398
 20
90.10396
 10
63.59398
 20
88.35136
  0
LWPOLYLINE
  5
2A1
100
AcDbEntity
  8
0
  6
ByLayer
 62
  256
370
   -1
100
AcDbPolyline
 90
    4
 70
    1
 43
0
 10
63.78956
 20
88.35136
 10
63.78956
 20
90.10396
 10
64.09435999999999
 20
90.10396
 10
64.09435999999999
 20
88.35136
  0
LWPOLYLINE
  5
2A2
100
AcDbEntity
  8
0
  6
ByLayer
 62
  256
370
   -1
100
AcDbPolyline
 90
    4
 70
    1
 43
0
 10
64.28994
 20
88.35136
 10
64.28994
 20
90.10396
 10
64.59474
 20
90.10396
 10
64.59474
 20
88.35136
  0
LWPOLYLINE
  5
2A3
100
AcDbEntity
  8
0
  6
ByLayer
 62
  256
370
   -1
100
AcDbPolyline
 90
    4
 70
    1
 43
0
 10
64.79031999999999
 20
88.35136
 10
64.79031999999999
 20
90.10396
 10
65.09511999999999
 20
90.10396
 10
65.09511999999999
 20
88.35136
  0
LWPOLYLINE
  5
2A4
100
AcDbEntity
  8
0
  6
ByLayer
 62
  256
370
   -1
100
AcDbPolyline
 90
    4
 70
    1
 43
0
 10
65.2907
 20
88.35136
 10
65.2907
 20
90.10396
 10
65.5955
 20
90.10396
 10
65.5955
 20
88.35136
  0
LWPOLYLINE
  5
2A5
100
AcDbEntity
  8
0
  6
ByLayer
 62
  256
370
   -1
100
AcDbPolyline
 90
    4
 70
    1
 43
0
 10
65.79107999999999
 20
88.35136
 10
65.79107999999999
 20
90.10396
 10
66.09587999999999
 20
90.10396
 10
66.09587999999999
 20
88.35136
  0
LWPOLYLINE
  5
2A6
100
AcDbEntity
  8
0
  6
ByLayer
 62
  256
370
   -1
100
AcDbPolyline
 90
    4
 70
    1
 43
0
 10
66.28892
 20
88.35136
 10
66.28892
 20
90.10396
 10
66.59372
 20
90.10396
 10
66.59372
 20
88.35136
  0
LWPOLYLINE
  5
2A7
100
AcDbEntity
  8
0
  6
ByLayer
 62
  256
370
   -1
100
AcDbPolyline
 90
    4
 70
    1
 43
0
 10
66.7893
 20
88.35136
 10
66.7893
 20
90.10396
 10
67.0941
 20
90.10396
 10
67.0941
 20
88.35136
  0
LWPOLYLINE
  5
2A8
100
AcDbEntity
  8
0
  6
ByLayer
 62
  256
370
   -1
100
AcDbPolyline
 90
    4
 70
    1
 43
0
 10
67.28968
 20
88.35136
 10
67.28968
 20
90.10396
 10
67.59448
 20
90.10396
 10
67.59448
 20
88.35136
  0
LWPOLYLINE
  5
2A9
100
AcDbEntity
  8
0
  6
ByLayer
 62
  256
370
   -1
100
AcDbPolyline
 90
    4
 70
    1
 43
0
 10
67.79006
 20
88.35136
 10
67.79006
 20
90.10396
 10
68.09486
 20
90.10396
 10
68.09486
 20
88.35136
  0
LWPOLYLINE
  5
2AA
100
AcDbEntity
  8
0
  6
ByLayer
 62
  256
370
   -1
100
AcDbPolyline
 90
    4
 70
    1
 43
0
 10
68.29044
 20
88.35136
 10
68.29044
 20
90.10396
 10
68.59524
 20
90.10396
 10
68.59524
 20
88.35136
  0
LWPOLYLINE
  5
2AB
100
AcDbEntity
  8
0
  6
ByLayer
 62
  256
370
   -1
100
AcDbPolyline
 90
    4
 70
    1
 43
0
 10
68.79082
 20
88.35136
 10
68.79082
 20
90.10396
 10
69.09562
 20
90.10396
 10
69.09562
 20
88.35136
  0
LWPOLYLINE
  5
2AC
100
AcDbEntity
  8
0
  6
ByLayer
 62
  256
370
   -1
100
AcDbPolyline
 90
    4
 70
    1
 43
0
 10
69.2912
 20
88.35136
 10
69.2912
 20
90.10396
 10
69.596
 20
90.10396
 10
69.596
 20
88.35136
  0
LWPOLYLINE
  5
2AD
100
AcDbEntity
  8
0
  6
ByLayer
 62
  256
370
   -1
100
AcDbPolyline
 90
    4
 70
    1
 43
0
 10
69.78904
 20
88.35136
 10
69.78904
 20
90.10396
 10
70.09384
 20
90.10396
 10
70.09384
 20
88.35136
  0
LWPOLYLINE
  5
2AE
100
AcDbEntity
  8
0
  6
ByLayer
 62
  256
370
   -1
100
AcDbPolyline
 90
    4
 70
    1
 43
0
 10
70.28942000000001
 20
88.35136
 10
70.28942000000001
 20
90.10396
 10
70.59422000000001
 20
90.10396
 10
70.59422000000001
 20
88.35136
  0
LWPOLYLINE
  5
2AF
100
AcDbEntity
  8
0
  6
ByLayer
 62
  256
370
   -1
100
AcDbPolyline
 90
    4
 70
    1
 43
0
 10
70.7898
 20
88.35136
 10
70.7898
 20
90.10396
 10
71.0946
 20
90.10396
 10
71.0946
 20
88.35136
  0
LWPOLYLINE
  5
2B0
100
AcDbEntity
  8
0
  6
ByLayer
 62
  256
370
   -1
100
AcDbPolyline
 90
    4
 70
    1
 43
0
 10
71.29018000000001
 20
88.35136
 10
71.29018000000001
 20
90.10396
 10
71.59498000000001
 20
90.10396
 10
71.59498000000001
 20
88.35136
  0
LWPOLYLINE
  5
2B1
100
AcDbEntity
  8
0
  6
ByLayer
 62
  256
370
   -1
100
AcDbPolyline
 90
    4
 70
    1
 43
0
 10
71.79056
 20
88.35136
 10
71.79056
 20
90.10396
 10
72.09536
 20
90.10396
 10
72.09536
 20
88.35136
  0
LWPOLYLINE
  5
2B2
100
AcDbEntity
  8
0
  6
ByLayer
 62
  256
370
   -1
100
AcDbPolyline
 90
    4
 70
    1
 43
0
 10
72.29094000000001
 20
88.35136
 10
72.29094000000001
 20
90.10396
 10
72.59574000000001
 20
90.10396
 10
72.59574000000001
 20
88.35136
  0
LWPOLYLINE
  5
2B3
100
AcDbEntity
  8
0
  6
ByLayer
 62
  256
370
   -1
100
AcDbPolyline
 90
    4
 70
    1
 43
0
 10
72.79132
 20
88.35136
 10
72.79132
 20
90.10396
 10
73.09612
 20
90.10396
 10
73.09612
 20
88.35136
  0
LWPOLYLINE
  5
2B4
100
AcDbEntity
  8
0
  6
ByLayer
 62
  256
370
   -1
100
AcDbPolyline
 90
    4
 70
    1
 43
0
 10
73.28916
 20
88.35136
 10
73.28916
 20
90.10396
 10
73.59396
 20
90.10396
 10
73.59396
 20
88.35136
  0
LWPOLYLINE
  5
2B5
100
AcDbEntity
  8
0
  6
ByLayer
 62
  256
370
   -1
100
AcDbPolyline
 90
    4
 70
    1
 43
0
 10
73.78954
 20
88.35136
 10
73.78954
 20
90.10396
 10
74.09434
 20
90.10396
 10
74.09434
 20
88.35136
  0
LWPOLYLINE
  5
2B6
100
AcDbEntity
  8
0
  6
ByLayer
 62
  256
370
   -1
100
AcDbPolyline
 90
    4
 70
    1
 43
0
 10
74.28992
 20
88.35136
 10
74.28992
 20
90.10396
 10
74.59472
 20
90.10396
 10
74.59472
 20
88.35136
  0
LWPOLYLINE
  5
2B7
100
AcDbEntity
  8
0
  6
ByLayer
 62
  256
370
   -1
100
AcDbPolyline
 90
    4
 70
    1
 43
0
 10
74.7903
 20
88.35136
 10
74.7903
 20
90.10396
 10
75.0951
 20
90.10396
 10
75.0951
 20
88.35136
  0
LWPOLYLINE
  5
2B8
100
AcDbEntity
  8
0
  6
ByLayer
 62
  256
370
   -1
100
AcDbPolyline
 90
    4
 70
    1
 43
0
 10
75.29067999999999
 20
88.35136
 10
75.29067999999999
 20
90.10396
 10
75.59547999999999
 20
90.10396
 10
75.59547999999999
 20
88.35136
  0
LWPOLYLINE
  5
2B9
100
AcDbEntity
  8
0
  6
ByLayer
 62
  256
370
   -1
100
AcDbPolyline
 90
    4
 70
    1
 43
0
 10
75.79106
 20
88.35136
 10
75.79106
 20
90.10396
 10
76.09586
 20
90.10396
 10
76.09586
 20
88.35136
  0
LWPOLYLINE
  5
2BA
100
AcDbEntity
  8
0
  6
ByLayer
 62
  256
370
   -1
100
AcDbPolyline
 90
    4
 70
    1
 43
0
 10
76.29143999999999
 20
88.35136
 10
76.29143999999999
 20
90.10396
 10
76.59623999999999
 20
90.10396
 10
76.59623999999999
 20
88.35136
  0
LWPOLYLINE
  5
2BB
100
AcDbEntity
  8
0
  6
ByLayer
 62
  256
370
   -1
100
AcDbPolyline
 90
    4
 70
    1
 43
0
 10
76.78928000000001
 20
88.35136
 10
76.78928000000001
 20
90.10396
 10
77.09408000000001
 20
90.10396
 10
77.09408000000001
 20
88.35136
  0
LWPOLYLINE
  5
2BC
100
AcDbEntity
  8
0
  6
ByLayer
 62
  256
370
   -1
100
AcDbPolyline
 90
    4
 70
    1
 43
0
 10
77.28966
 20
88.35136
 10
77.28966
 20
90.10396
 10
77.59446
 20
90.10396
 10
77.59446
 20
88.35136
  0
LWPOLYLINE
  5
2BD
100
AcDbEntity
  8
0
  6
ByLayer
 62
  256
370
   -1
100
AcDbPolyline
 90
    4
 70
    1
 43
0
 10
77.79004
 20
88.35136
 10
77.79004
 20
90.10396
 10
78.09484
 20
90.10396
 10
78.09484
 20
88.35136
  0
LWPOLYLINE
  5
2BE
100
AcDbEntity
  8
0
  6
ByLayer
 62
  256
370
   -1
100
AcDbPolyline
 90
    4
 70
    1
 43
0
 10
78.29042
 20
88.35136
 10
78.29042
 20
90.10396
 10
78.59522
 20
90.10396
 10
78.59522
 20
88.35136
  0
LWPOLYLINE
  5
2BF
100
AcDbEntity
  8
0
  6
ByLayer
 62
  256
370
   -1
100
AcDbPolyline
 90
    4
 70
    1
 43
0
 10
78.7908
 20
88.35136
 10
78.7908
 20
90.10396
 10
79.0956
 20
90.10396
 10
79.0956
 20
88.35136
  0
LWPOLYLINE
  5
2C0
100
AcDbEntity
  8
0
  6
ByLayer
 62
  256
370
   -1
100
AcDbPolyline
 90
    4
 70
    1
 43
0
 10
79.29118
 20
88.35136
 10
79.29118
 20
90.10396
 10
79.59598
 20
90.10396
 10
79.59598
 20
88.35136
  0
LWPOLYLINE
  5
2C1
100
AcDbEntity
  8
0
  6
ByLayer
 62
  256
370
   -1
100
AcDbPolyline
 90
    4
 70
    1
 43
0
 10
79.79156
 20
88.35136
 10
79.79156
 20
90.10396
 10
80.09636
 20
90.10396
 10
80.09636
 20
88.35136
  0
LWPOLYLINE
  5
2C2
100
AcDbEntity
  8
0
  6
ByLayer
 62
  256
370
   -1
100
AcDbPolyline
 90
    4
 70
    1
 43
0
 10
80.2894
 20
88.35136
 10
80.2894
 20
90.10396
 10
80.5942
 20
90.10396
 10
80.5942
 20
88.35136
  0
LWPOLYLINE
  5
2C3
100
AcDbEntity
  8
0
  6
ByLayer
 62
  256
370
   -1
100
AcDbPolyline
 90
    4
 70
    1
 43
0
 10
80.78977999999999
 20
88.35136
 10
80.78977999999999
 20
90.10396
 10
81.09457999999999
 20
90.10396
 10
81.09457999999999
 20
88.35136
  0
LWPOLYLINE
  5
2C4
100
AcDbEntity
  8
0
  6
ByLayer
 62
  256
370
   -1
100
AcDbPolyline
 90
    4
 70
    1
 43
0
 10
81.29016
 20
88.35136
 10
81.29016
 20
90.10396
 10
81.59496
 20
90.10396
 10
81.59496
 20
88.35136
  0
LWPOLYLINE
  5
2C5
100
AcDbEntity
  8
0
  6
ByLayer
 62
  256
370
   -1
100
AcDbPolyline
 90
    4
 70
    1
 43
0
 10
81.79053999999999
 20
88.35136
 10
81.79053999999999
 20
90.10396
 10
82.09533999999999
 20
90.10396
 10
82.09533999999999
 20
88.35136
  0
LWPOLYLINE
  5
2C6
100
AcDbEntity
  8
0
  6
ByLayer
 62
  256
370
   -1
100
AcDbPolyline
 90
    4
 70
    1
 43
0
 10
82.29092
 20
88.35136
 10
82.29092
 20
90.10396
 10
82.59572
 20
90.10396
 10
82.59572
 20
88.35136
  0
LWPOLYLINE
  5
2C7
100
AcDbEntity
  8
0
  6
ByLayer
 62
  256
370
   -1
100
AcDbPolyline
 90
    4
 70
    1
 43
0
 10
82.79130000000001
 20
88.35136
 10
82.79130000000001
 20
90.10396
 10
83.09610000000001
 20
90.10396
 10
83.09610000000001
 20
88.35136
  0
LWPOLYLINE
  5
2C8
100
AcDbEntity
  8
0
  6
ByLayer
 62
  256
370
   -1
100
AcDbPolyline
 90
    4
 70
    1
 43
0
 10
83.28914
 20
88.35136
 10
83.28914
 20
90.10396
 10
83.59394
 20
90.10396
 10
83.59394
 20
88.35136
  0
LWPOLYLINE
  5
2C9
100
AcDbEntity
  8
0
  6
ByLayer
 62
  256
370
   -1
100
AcDbPolyline
 90
    4
 70
    1
 43
0
 10
83.78952
 20
88.35136
 10
83.78952
 20
90.10396
 10
84.09432
 20
90.10396
 10
84.09432
 20
88.35136
  0
LWPOLYLINE
  5
2CA
100
AcDbEntity
  8
0
  6
ByLayer
 62
  256
370
   -1
100
AcDbPolyline
 90
    4
 70
    1
 43
0
 10
84.2899
 20
88.35136
 10
84.2899
 20
90.10396
 10
84.5947
 20
90.10396
 10
84.5947
 20
88.35136
  0
LWPOLYLINE
  5
2CB
100
AcDbEntity
  8
0
  6
ByLayer
 62
  256
370
   -1
100
AcDbPolyline
 90
    4
 70
    1
 43
0
 10
84.79028
 20
88.35136
 10
84.79028
 20
90.10396
 10
85.09508
 20
90.10396
 10
85.09508
 20
88.35136
  0
LWPOLYLINE
  5
2CC
100
AcDbEntity
  8
0
  6
ByLayer
 62
  256
370
   -1
100
AcDbPolyline
 90
    4
 70
    1
 43
0
 10
85.29066
 20
88.35136
 10
85.29066
 20
90.10396
 10
85.59546
 20
90.10396
 10
85.59546
 20
88.35136
  0
LWPOLYLINE
  5
2CD
100
AcDbEntity
  8
0
  6
ByLayer
 62
  256
370
   -1
100
AcDbPolyline
 90
    4
 70
    1
 43
0
 10
85.79104
 20
88.35136
 10
85.79104
 20
90.10396
 10
86.09584
 20
90.10396
 10
86.09584
 20
88.35136
  0
LWPOLYLINE
  5
2CE
100
AcDbEntity
  8
0
  6
ByLayer
 62
  256
370
   -1
100
AcDbPolyline
 90
    4
 70
    1
 43
0
 10
86.29142
 20
88.35136
 10
86.29142
 20
90.10396
 10
86.59622
 20
90.10396
 10
86.59622
 20
88.35136
  0
LWPOLYLINE
  5
2CF
100
AcDbEntity
  8
0
  6
ByLayer
 62
  256
370
   -1
100
AcDbPolyline
 90
    4
 70
    1
 43
0
 10
86.78926
 20
88.35136
 10
86.78926
 20
90.10396
 10
87.09406
 20
90.10396
 10
87.09406
 20
88.35136
  0
LWPOLYLINE
  5
2D0
100
AcDbEntity
  8
0
  6
ByLayer
 62
  256
370
   -1
100
AcDbPolyline
 90
    4
 70
    1
 43
0
 10
59.54014
 20
80.15224000000001
 10
59.54014
 20
81.90483999999999
 10
59.84494
 20
81.90483999999999
 10
59.84494
 20
80.15224000000001
  0
LWPOLYLINE
  5
2D1
100
AcDbEntity
  8
0
  6
ByLayer
 62
  256
370
   -1
100
AcDbPolyline
 90
    4
 70
    1
 43
0
 10
60.04052
 20
80.15224000000001
 10
60.04052
 20
81.90483999999999
 10
60.34532
 20
81.90483999999999
 10
60.34532
 20
80.15224000000001
  0
LWPOLYLINE
  5
2D2
100
AcDbEntity
  8
0
  6
ByLayer
 62
  256
370
   -1
100
AcDbPolyline
 90
    4
 70
    1
 43
0
 10
60.5409
 20
80.15224000000001
 10
60.5409
 20
81.90483999999999
 10
60.8457
 20
81.90483999999999
 10
60.8457
 20
80.15224000000001
  0
LWPOLYLINE
  5
2D3
100
AcDbEntity
  8
0
  6
ByLayer
 62
  256
370
   -1
100
AcDbPolyline
 90
    4
 70
    1
 43
0
 10
61.04128
 20
80.15224000000001
 10
61.04128
 20
81.90483999999999
 10
61.34608
 20
81.90483999999999
 10
61.34608
 20
80.15224000000001
  0
LWPOLYLINE
  5
2D4
100
AcDbEntity
  8
0
  6
ByLayer
 62
  256
370
   -1
100
AcDbPolyline
 90
    4
 70
    1
 43
0
 10
61.53912
 20
80.15224000000001
 10
61.53912
 20
81.90483999999999
 10
61.84392
 20
81.90483999999999
 10
61.84392
 20
80.15224000000001
  0
LWPOLYLINE
  5
2D5
100
AcDbEntity
  8
0
  6
ByLayer
 62
  256
370
   -1
100
AcDbPolyline
 90
    4
 70
    1
 43
0
 10
62.0395
 20
80.15224000000001
 10
62.0395
 20
81.90483999999999
 10
62.3443
 20
81.90483999999999
 10
62.3443
 20
80.15224000000001
  0
LWPOLYLINE
  5
2D6
100
AcDbEntity
  8
0
  6
ByLayer
 62
  256
370
   -1
100
AcDbPolyline
 90
    4
 70
    1
 43
0
 10
62.53988
 20
80.15224000000001
 10
62.53988
 20
81.90483999999999
 10
62.84468
 20
81.90483999999999
 10
62.84468
 20
80.15224000000001
  0
LWPOLYLINE
  5
2D7
100
AcDbEntity
  8
0
  6
ByLayer
 62
  256
370
   -1
100
AcDbPolyline
 90
    4
 70
    1
 43
0
 10
63.04026
 20
80.15224000000001
 10
63.04026
 20
81.90483999999999
 10
63.34506
 20
81.90483999999999
 10
63.34506
 20
80.15224000000001
  0
LWPOLYLINE
  5
2D8
100
AcDbEntity
  8
0
  6
ByLayer
 62
  256
370
   -1
100
AcDbPolyline
 90
    4
 70
    1
 43
0
 10
63.54064
 20
80.15224000000001
 10
63.54064
 20
81.90483999999999
 10
63.84544
 20
81.90483999999999
 10
63.84544
 20
80.15224000000001
  0
LWPOLYLINE
  5
2D9
100
AcDbEntity
  8
0
  6
ByLayer
 62
  256
370
   -1
100
AcDbPolyline
 90
    4
 70
    1
 43
0
 10
64.04102
 20
80.15224000000001
 10
64.04102
 20
81.90483999999999
 10
64.34582
 20
81.90483999999999
 10
64.34582
 20
80.15224000000001
  0
LWPOLYLINE
  5
2DA
100
AcDbEntity
  8
0
  6
ByLayer
 62
  256
370
   -1
100
AcDbPolyline
 90
    4
 70
    1
 43
0
 10
64.5414
 20
80.15224000000001
 10
64.5414
 20
81.90483999999999
 10
64.8462
 20
81.90483999999999
 10
64.8462
 20
80.15224000000001
  0
LWPOLYLINE
  5
2DB
100
AcDbEntity
  8
0
  6
ByLayer
 62
  256
370
   -1
100
AcDbPolyline
 90
    4
 70
    1
 43
0
 10
65.03924000000001
 20
80.15224000000001
 10
65.03924000000001
 20
81.90483999999999
 10
65.34404000000001
 20
81.90483999999999
 10
65.34404000000001
 20
80.15224000000001
  0
LWPOLYLINE
  5
2DC
100
AcDbEntity
  8
0
  6
ByLayer
 62
  256
370
   -1
100
AcDbPolyline
 90
    4
 70
    1
 43
0
 10
65.53962
 20
80.15224000000001
 10
65.53962
 20
81.90483999999999
 10
65.84442
 20
81.90483999999999
 10
65.84442
 20
80.15224000000001
  0
LWPOLYLINE
  5
2DD
100
AcDbEntity
  8
0
  6
ByLayer
 62
  256
370
   -1
100
AcDbPolyline
 90
    4
 70
    1
 43
0
 10
66.04000000000001
 20
80.15224000000001
 10
66.04000000000001
 20
81.90483999999999
 10
66.34480000000001
 20
81.90483999999999
 10
66.34480000000001
 20
80.15224000000001
  0
LWPOLYLINE
  5
2DE
100
AcDbEntity
  8
0
  6
ByLayer
 62
  256
370
   -1
100
AcDbPolyline
 90
    4
 70
    1
 43
0
 10
66.54038
 20
80.15224000000001
 10
66.54038
 20
81.90483999999999
 10
66.84518
 20
81.90483999999999
 10
66.84518
 20
80.15224000000001
  0
LWPOLYLINE
  5
2DF
100
AcDbEntity
  8
0
  6
ByLayer
 62
  256
370
   -1
100
AcDbPolyline
 90
    4
 70
    1
 43
0
 10
67.04076000000001
 20
80.15224000000001
 10
67.04076000000001
 20
81.90483999999999
 10
67.34556000000001
 20
81.90483999999999
 10
67.34556000000001
 20
80.15224000000001
  0
LWPOLYLINE
  5
2E0
100
AcDbEntity
  8
0
  6
ByLayer
 62
  256
370
   -1
100
AcDbPolyline
 90
    4
 70
    1
 43
0
 10
67.54114
 20
80.15224000000001
 10
67.54114
 20
81.90483999999999
 10
67.84594
 20
81.90483999999999
 10
67.84594
 20
80.15224000000001
  0
LWPOLYLINE
  5
2E1
100
AcDbEntity
  8
0
  6
ByLayer
 62
  256
370
   -1
100
AcDbPolyline
 90
    4
 70
    1
 43
0
 10
68.04152000000001
 20
80.15224000000001
 10
68.04152000000001
 20
81.90483999999999
 10
68.34632000000001
 20
81.90483999999999
 10
68.34632000000001
 20
80.15224000000001
  0
LWPOLYLINE
  5
2E2
100
AcDbEntity
  8
0
  6
ByLayer
 62
  256
370
   -1
100
AcDbPolyline
 90
    4
 70
    1
 43
0
 10
68.53936
 20
80.15224000000001
 10
68.53936
 20
81.90483999999999
 10
68.84416
 20
81.90483999999999
 10
68.84416
 20
80.15224000000001
  0
LWPOLYLINE
  5
2E3
100
AcDbEntity
  8
0
  6
ByLayer
 62
  256
370
   -1
100
AcDbPolyline
 90
    4
 70
    1
 43
0
 10
69.03973999999999
 20
80.15224000000001
 10
69.03973999999999
 20
81.90483999999999
 10
69.34453999999999
 20
81.90483999999999
 10
69.34453999999999
 20
80.15224000000001
  0
LWPOLYLINE
  5
2E4
100
AcDbEntity
  8
0
  6
ByLayer
 62
  256
370
   -1
100
AcDbPolyline
 90
    4
 70
    1
 43
0
 10
69.54012
 20
80.15224000000001
 10
69.54012
 20
81.90483999999999
 10
69.84492
 20
81.90483999999999
 10
69.84492
 20
80.15224000000001
  0
LWPOLYLINE
  5
2E5
100
AcDbEntity
  8
0
  6
ByLayer
 62
  256
370
   -1
100
AcDbPolyline
 90
    4
 70
    1
 43
0
 10
70.04049999999999
 20
80.15224000000001
 10
70.04049999999999
 20
81.90483999999999
 10
70.34529999999999
 20
81.90483999999999
 10
70.34529999999999
 20
80.15224000000001
  0
LWPOLYLINE
  5
2E6
100
AcDbEntity
  8
0
  6
ByLayer
 62
  256
370
   -1
100
AcDbPolyline
 90
    4
 70
    1
 43
0
 10
70.54088
 20
80.15224000000001
 10
70.54088
 20
81.90483999999999
 10
70.84568
 20
81.90483999999999
 10
70.84568
 20
80.15224000000001
  0
LWPOLYLINE
  5
2E7
100
AcDbEntity
  8
0
  6
ByLayer
 62
  256
370
   -1
100
AcDbPolyline
 90
    4
 70
    1
 43
0
 10
71.04125999999999
 20
80.15224000000001
 10
71.04125999999999
 20
81.90483999999999
 10
71.34605999999999
 20
81.90483999999999
 10
71.34605999999999
 20
80.15224000000001
  0
LWPOLYLINE
  5
2E8
100
AcDbEntity
  8
0
  6
ByLayer
 62
  256
370
   -1
100
AcDbPolyline
 90
    4
 70
    1
 43
0
 10
71.54164
 20
80.15224000000001
 10
71.54164
 20
81.90483999999999
 10
71.84644
 20
81.90483999999999
 10
71.84644
 20
80.15224000000001
  0
LWPOLYLINE
  5
2E9
100
AcDbEntity
  8
0
  6
ByLayer
 62
  256
370
   -1
100
AcDbPolyline
 90
    4
 70
    1
 43
0
 10
72.03948
 20
80.15224000000001
 10
72.03948
 20
81.90483999999999
 10
72.34428
 20
81.90483999999999
 10
72.34428
 20
80.15224000000001
  0
LWPOLYLINE
  5
2EA
100
AcDbEntity
  8
0
  6
ByLayer
 62
  256
370
   -1
100
AcDbPolyline
 90
    4
 70
    1
 43
0
 10
72.53986
 20
80.15224000000001
 10
72.53986
 20
81.90483999999999
 10
72.84466
 20
81.90483999999999
 10
72.84466
 20
80.15224000000001
  0
LWPOLYLINE
  5
2EB
100
AcDbEntity
  8
0
  6
ByLayer
 62
  256
370
   -1
100
AcDbPolyline
 90
    4
 70
    1
 43
0
 10
73.04024
 20
80.15224000000001
 10
73.04024
 20
81.90483999999999
 10
73.34504
 20
81.90483999999999
 10
73.34504
 20
80.15224000000001
  0
LWPOLYLINE
  5
2EC
100
AcDbEntity
  8
0
  6
ByLayer
 62
  256
370
   -1
100
AcDbPolyline
 90
    4
 70
    1
 43
0
 10
73.54062
 20
80.15224000000001
 10
73.54062
 20
81.90483999999999
 10
73.84542
 20
81.90483999999999
 10
73.84542
 20
80.15224000000001
  0
LWPOLYLINE
  5
2ED
100
AcDbEntity
  8
0
  6
ByLayer
 62
  256
370
   -1
100
AcDbPolyline
 90
    4
 70
    1
 43
0
 10
74.041
 20
80.15224000000001
 10
74.041
 20
81.90483999999999
 10
74.3458
 20
81.90483999999999
 10
74.3458
 20
80.15224000000001
  0
LWPOLYLINE
  5
2EE
100
AcDbEntity
  8
0
  6
ByLayer
 62
  256
370
   -1
100
AcDbPolyline
 90
    4
 70
    1
 43
0
 10
74.54138
 20
80.15224000000001
 10
74.54138
 20
81.90483999999999
 10
74.84618
 20
81.90483999999999
 10
74.84618
 20
80.15224000000001
  0
LWPOLYLINE
  5
2EF
100
AcDbEntity
  8
0
  6
ByLayer
 62
  256
370
   -1
100
AcDbPolyline
 90
    4
 70
    1
 43
0
 10
75.03922
 20
80.15224000000001
 10
75.03922
 20
81.90483999999999
 10
75.34402
 20
81.90483999999999
 10
75.34402
 20
80.15224000000001
  0
LWPOLYLINE
  5
2F0
100
AcDbEntity
  8
0
  6
ByLayer
 62
  256
370
   -1
100
AcDbPolyline
 90
    4
 70
    1
 43
0
 10
75.53959999999999
 20
80.15224000000001
 10
75.53959999999999
 20
81.90483999999999
 10
75.84439999999999
 20
81.90483999999999
 10
75.84439999999999
 20
80.15224000000001
  0
LWPOLYLINE
  5
2F1
100
AcDbEntity
  8
0
  6
ByLayer
 62
  256
370
   -1
100
AcDbPolyline
 90
    4
 70
    1
 43
0
 10
76.03998
 20
80.15224000000001
 10
76.03998
 20
81.90483999999999
 10
76.34478
 20
81.90483999999999
 10
76.34478
 20
80.15224000000001
  0
LWPOLYLINE
  5
2F2
100
AcDbEntity
  8
0
  6
ByLayer
 62
  256
370
   -1
100
AcDbPolyline
 90
    4
 70
    1
 43
0
 10
76.54036000000001
 20
80.15224000000001
 10
76.54036000000001
 20
81.90483999999999
 10
76.84516000000001
 20
81.90483999999999
 10
76.84516000000001
 20
80.15224000000001
  0
LWPOLYLINE
  5
2F3
100
AcDbEntity
  8
0
  6
ByLayer
 62
  256
370
   -1
100
AcDbPolyline
 90
    4
 70
    1
 43
0
 10
77.04074
 20
80.15224000000001
 10
77.04074
 20
81.90483999999999
 10
77.34554
 20
81.90483999999999
 10
77.34554
 20
80.15224000000001
  0
LWPOLYLINE
  5
2F4
100
AcDbEntity
  8
0
  6
ByLayer
 62
  256
370
   -1
100
AcDbPolyline
 90
    4
 70
    1
 43
0
 10
77.54112000000001
 20
80.15224000000001
 10
77.54112000000001
 20
81.90483999999999
 10
77.84592000000001
 20
81.90483999999999
 10
77.84592000000001
 20
80.15224000000001
  0
LWPOLYLINE
  5
2F5
100
AcDbEntity
  8
0
  6
ByLayer
 62
  256
370
   -1
100
AcDbPolyline
 90
    4
 70
    1
 43
0
 10
78.03896
 20
80.15224000000001
 10
78.03896
 20
81.90483999999999
 10
78.34376
 20
81.90483999999999
 10
78.34376
 20
80.15224000000001
  0
LWPOLYLINE
  5
2F6
100
AcDbEntity
  8
0
  6
ByLayer
 62
  256
370
   -1
100
AcDbPolyline
 90
    4
 70
    1
 43
0
 10
78.53934
 20
80.15224000000001
 10
78.53934
 20
81.90483999999999
 10
78.84414
 20
81.90483999999999
 10
78.84414
 20
80.15224000000001
  0
LWPOLYLINE
  5
2F7
100
AcDbEntity
  8
0
  6
ByLayer
 62
  256
370
   -1
100
AcDbPolyline
 90
    4
 70
    1
 43
0
 10
79.03972
 20
80.15224000000001
 10
79.03972
 20
81.90483999999999
 10
79.34452
 20
81.90483999999999
 10
79.34452
 20
80.15224000000001
  0
LWPOLYLINE
  5
2F8
100
AcDbEntity
  8
0
  6
ByLayer
 62
  256
370
   -1
100
AcDbPolyline
 90
    4
 70
    1
 43
0
 10
79.5401
 20
80.15224000000001
 10
79.5401
 20
81.90483999999999
 10
79.8449
 20
81.90483999999999
 10
79.8449
 20
80.15224000000001
  0
LWPOLYLINE
  5
2F9
100
AcDbEntity
  8
0
  6
ByLayer
 62
  256
370
   -1
100
AcDbPolyline
 90
    4
 70
    1
 43
0
 10
80.04048
 20
80.15224000000001
 10
80.04048
 20
81.90483999999999
 10
80.34528
 20
81.90483999999999
 10
80.34528
 20
80.15224000000001
  0
LWPOLYLINE
  5
2FA
100
AcDbEntity
  8
0
  6
ByLayer
 62
  256
370
   -1
100
AcDbPolyline
 90
    4
 70
    1
 43
0
 10
80.54086
 20
80.15224000000001
 10
80.54086
 20
81.90483999999999
 10
80.84566
 20
81.90483999999999
 10
80.84566
 20
80.15224000000001
  0
LWPOLYLINE
  5
2FB
100
AcDbEntity
  8
0
  6
ByLayer
 62
  256
370
   -1
100
AcDbPolyline
 90
    4
 70
    1
 43
0
 10
81.04124
 20
80.15224000000001
 10
81.04124
 20
81.90483999999999
 10
81.34604
 20
81.90483999999999
 10
81.34604
 20
80.15224000000001
  0
LWPOLYLINE
  5
2FC
100
AcDbEntity
  8
0
  6
ByLayer
 62
  256
370
   -1
100
AcDbPolyline
 90
    4
 70
    1
 43
0
 10
81.53908
 20
80.15224000000001
 10
81.53908
 20
81.90483999999999
 10
81.84388
 20
81.90483999999999
 10
81.84388
 20
80.15224000000001
  0
LWPOLYLINE
  5
2FD
100
AcDbEntity
  8
0
  6
ByLayer
 62
  256
370
   -1
100
AcDbPolyline
 90
    4
 70
    1
 43
0
 10
82.03946000000001
 20
80.15224000000001
 10
82.03946000000001
 20
81.90483999999999
 10
82.34426000000001
 20
81.90483999999999
 10
82.34426000000001
 20
80.15224000000001
  0
LWPOLYLINE
  5
2FE
100
AcDbEntity
  8
0
  6
ByLayer
 62
  256
370
   -1
100
AcDbPolyline
 90
    4
 70
    1
 43
0
 10
82.53984
 20
80.15224000000001
 10
82.53984
 20
81.90483999999999
 10
82.84464
 20
81.90483999999999
 10
82.84464
 20
80.15224000000001
  0
LWPOLYLINE
  5
2FF
100
AcDbEntity
  8
0
  6
ByLayer
 62
  256
370
   -1
100
AcDbPolyline
 90
    4
 70
    1
 43
0
 10
83.04022000000001
 20
80.15224000000001
 10
83.04022000000001
 20
81.90483999999999
 10
83.34502000000001
 20
81.90483999999999
 10
83.34502000000001
 20
80.15224000000001
  0
LWPOLYLINE
  5
300
100
AcDbEntity
  8
0
  6
ByLayer
 62
  256
370
   -1
100
AcDbPolyline
 90
    4
 70
    1
 43
0
 10
83.5406
 20
80.15224000000001
 10
83.5406
 20
81.90483999999999
 10
83.8454
 20
81.90483999999999
 10
83.8454
 20
80.15224000000001
  0
LWPOLYLINE
  5
301
100
AcDbEntity
  8
0
  6
ByLayer
 62
  256
370
   -1
100
AcDbPolyline
 90
    4
 70
    1
 43
0
 10
84.04098
 20
80.15224000000001
 10
84.04098
 20
81.90483999999999
 10
84.34578
 20
81.90483999999999
 10
84.34578
 20
80.15224000000001
  0
LWPOLYLINE
  5
302
100
AcDbEntity
  8
0
  6
ByLayer
 62
  256
370
   -1
100
AcDbPolyline
 90
    4
 70
    1
 43
0
 10
84.54136
 20
80.15224000000001
 10
84.54136
 20
81.90483999999999
 10
84.84616
 20
81.90483999999999
 10
84.84616
 20
80.15224000000001
  0
LWPOLYLINE
  5
303
100
AcDbEntity
  8
0
  6
ByLayer
 62
  256
370
   -1
100
AcDbPolyline
 90
    4
 70
    1
 43
0
 10
85.03919999999999
 20
80.15224000000001
 10
85.03919999999999
 20
81.90483999999999
 10
85.34399999999999
 20
81.90483999999999
 10
85.34399999999999
 20
80.15224000000001
  0
LWPOLYLINE
  5
304
100
AcDbEntity
  8
0
  6
ByLayer
 62
  256
370
   -1
100
AcDbPolyline
 90
    4
 70
    1
 43
0
 10
85.53958
 20
80.15224000000001
 10
85.53958
 20
81.90483999999999
 10
85.84438
 20
81.90483999999999
 10
85.84438
 20
80.15224000000001
  0
LWPOLYLINE
  5
305
100
AcDbEntity
  8
0
  6
ByLayer
 62
  256
370
   -1
100
AcDbPolyline
 90
    4
 70
    1
 43
0
 10
86.03995999999999
 20
80.15224000000001
 10
86.03995999999999
 20
81.90483999999999
 10
86.34475999999999
 20
81.90483999999999
 10
86.34475999999999
 20
80.15224000000001
  0
LWPOLYLINE
  5
306
100
AcDbEntity
  8
0
  6
ByLayer
 62
  256
370
   -1
100
AcDbPolyline
 90
    4
 70
    1
 43
0
 10
86.54034
 20
80.15224000000001
 10
86.54034
 20
81.90483999999999
 10
86.84514
 20
81.90483999999999
 10
86.84514
 20
80.15224000000001
  0
LWPOLYLINE
  5
307
100
AcDbEntity
  8
0
  6
ByLayer
 62
  256
370
   -1
100
AcDbPolyline
 90
    4
 70
    1
 43
0
 10
87.04071999999999
 20
80.15224000000001
 10
87.04071999999999
 20
81.90483999999999
 10
87.34551999999999
 20
81.90483999999999
 10
87.34551999999999
 20
80.15224000000001
  0
LWPOLYLINE
  5
308
100
AcDbEntity
  8
0
  6
ByLayer
 62
  256
370
   -1
100
AcDbPolyline
 90
    4
 70
    1
 43
0
 10
16.0655
 20
71.374
 10
16.0655
 20
74.8792
 10
18.0721
 20
74.8792
 10
18.0721
 20
71.374
  0
LWPOLYLINE
  5
309
100
AcDbEntity
  8
0
  6
ByLayer
 62
  256
370
   -1
100
AcDbPolyline
 90
    4
 70
    1
 43
0
 10
91.56446
 20
75.3745
 10
91.56446
 20
78.8797
 10
93.57106
 20
78.8797
 10
93.57106
 20
75.3745
  0
LWPOLYLINE
  5
30A
100
AcDbEntity
  8
0
  6
ByLayer
 62
  256
370
   -1
100
AcDbPolyline
 90
    4
 70
    1
 43
0
 10
87.28964000000001
 20
88.35136
 10
87.28964000000001
 20
90.10396
 10
87.59444000000001
 20
90.10396
 10
87.59444000000001
 20
88.35136
  0
LWPOLYLINE
  5
30B
100
AcDbEntity
  8
0
  6
ByLayer
 62
  256
370
   -1
100
AcDbPolyline
 90
    4
 70
    1
 43
0
 10
87.79002
 20
88.35136
 10
87.79002
 20
90.10396
 10
88.09482
 20
90.10396
 10
88.09482
 20
88.35136
  0
LWPOLYLINE
  5
30C
100
AcDbEntity
  8
0
  6
ByLayer
 62
  256
370
   -1
100
AcDbPolyline
 90
    4
 70
    1
 43
0
 10
87.5411
 20
80.15224000000001
 10
87.5411
 20
81.90483999999999
 10
87.8459
 20
81.90483999999999
 10
87.8459
 20
80.15224000000001
  0
LWPOLYLINE
  5
30D
100
AcDbEntity
  8
0
  6
ByLayer
 62
  256
370
   -1
100
AcDbPolyline
 90
    4
 70
    1
 43
0
 10
88.04148000000001
 20
80.15224000000001
 10
88.04148000000001
 20
81.90483999999999
 10
88.34627999999999
 20
81.90483999999999
 10
88.34627999999999
 20
80.15224000000001
  0
LWPOLYLINE
  5
30E
100
AcDbEntity
  8
PACKAGE_GEOMET_SILKSCREEN_BOTT
  6
ByLayer
 62
  256
370
   -1
100
AcDbPolyline
 90
    2
 70
    0
 43
0
 10
20.02282
 20
83.35263999999999
 10
20.02282
 20
80.81518
  0
LWPOLYLINE
  5
30F
100
AcDbEntity
  8
PACKAGE_GEOMET_SILKSCREEN_BOTT
  6
ByLayer
 62
  256
370
   -1
100
AcDbPolyline
 90
    2
 70
    0
 43
0
 10
89.61882
 20
83.35263999999999
 10
89.61882
 20
80.81518
  0
LWPOLYLINE
  5
310
100
AcDbEntity
  8
PACKAGE_GEOMET_SILKSCREEN_BOTT
  6
ByLayer
 62
  256
370
   -1
100
AcDbPolyline
 90
    2
 70
    0
 43
0
 10
89.61882
 20
83.36788
 10
20.01774
 20
83.36788
  0
LWPOLYLINE
  5
311
100
AcDbEntity
  8
PACKAGE_GEOMET_SILKSCREEN_BOTT
  6
ByLayer
 62
  256
370
   -1
100
AcDbPolyline
 90
    2
 70
    0
 43
0
 10
18.58772
 20
77.36839999999999
 10
18.74774
 20
77.36839999999999
  0
LWPOLYLINE
  5
312
100
AcDbEntity
  8
PACKAGE_GEOMET_SILKSCREEN_BOTT
  6
ByLayer
 62
  256
370
   -1
100
AcDbPolyline
 90
    2
 70
    0
 43
0
 10
18.58772
 20
77.36839999999999
 10
18.16862
 20
77.36839999999999
  0
LWPOLYLINE
  5
313
100
AcDbEntity
  8
PACKAGE_GEOMET_SILKSCREEN_BOTT
  6
ByLayer
 62
  256
370
   -1
100
AcDbPolyline
 90
    2
 70
    0
 43
0
 10
18.16862
 20
77.36839999999999
 10
18.16862
 20
83.36788
  0
LWPOLYLINE
  5
314
100
AcDbEntity
  8
PACKAGE_GEOMET_SILKSCREEN_BOTT
  6
ByLayer
 62
  256
370
   -1
100
AcDbPolyline
 90
    2
 70
    0
 43
0
 10
15.81912
 20
63.90894
 10
18.74774
 20
77.36839999999999
  0
LWPOLYLINE
  5
315
100
AcDbEntity
  8
PACKAGE_GEOMET_SILKSCREEN_BOTT
  6
ByLayer
 62
  256
370
   -1
100
AcDbPolyline
 90
    2
 70
    0
 43
0
 10
18.76806
 20
77.36839999999999
 10
18.76806
 20
63.90894
  0
LWPOLYLINE
  5
316
100
AcDbEntity
  8
PACKAGE_GEOMET_SILKSCREEN_BOTT
  6
ByLayer
 62
  256
370
   -1
100
AcDbPolyline
 90
    2
 70
    0
 43
0
 10
15.81912
 20
63.90894
 10
18.76806
 20
63.90894
  0
LWPOLYLINE
  5
317
100
AcDbEntity
  8
PACKAGE_GEOMET_SILKSCREEN_BOTT
  6
ByLayer
 62
  256
370
   -1
100
AcDbPolyline
 90
    2
 70
    0
 43
0
 10
20.4089
 20
88.5063
 10
20.4089
 20
88.75776
  0
LWPOLYLINE
  5
318
100
AcDbEntity
  8
PACKAGE_GEOMET_SILKSCREEN_BOTT
  6
ByLayer
 62
  256
370
   -1
100
AcDbPolyline
 90
    2
 70
    0
 43
0
 10
21.18868
 20
88.5063
 10
20.4089
 20
88.5063
  0
LWPOLYLINE
  5
319
100
AcDbEntity
  8
PACKAGE_GEOMET_SILKSCREEN_BOTT
  6
ByLayer
 62
  256
370
   -1
100
AcDbPolyline
 90
    3
 70
    0
 43
0
 10
18.16862
 20
83.36788
 10
18.16862
 20
89.90837999999999
 10
19.11858
 20
89.90837999999999
  0
LWPOLYLINE
  5
31A
100
AcDbEntity
  8
PACKAGE_GEOMET_SILKSCREEN_BOTT
  6
ByLayer
 62
  256
370
   -1
100
AcDbPolyline
 90
    2
 70
    0
 43
0
 10
19.80692
 20
89.60866
 10
19.80692
 20
89.90837999999999
  0
LWPOLYLINE
  5
31B
100
AcDbEntity
  8
PACKAGE_GEOMET_SILKSCREEN_BOTT
  6
ByLayer
 62
  256
370
   -1
100
AcDbPolyline
 90
    2
 70
    0
 43
0
 10
19.80692
 20
89.60866
 10
19.80692
 20
88.75776
  0
LWPOLYLINE
  5
31C
100
AcDbEntity
  8
PACKAGE_GEOMET_SILKSCREEN_BOTT
  6
ByLayer
 62
  256
370
   -1
100
AcDbPolyline
 90
    2
 70
    0
 43
0
 10
19.80692
 20
89.90837999999999
 10
19.11858
 20
89.90837999999999
  0
LWPOLYLINE
  5
31D
100
AcDbEntity
  8
PACKAGE_GEOMET_SILKSCREEN_BOTT
  6
ByLayer
 62
  256
370
   -1
100
AcDbPolyline
 90
    2
 70
    0
 43
0
 10
20.4089
 20
88.75776
 10
21.17852
 20
88.75776
  0
LWPOLYLINE
  5
31E
100
AcDbEntity
  8
PACKAGE_GEOMET_SILKSCREEN_BOTT
  6
ByLayer
 62
  256
370
   -1
100
AcDbPolyline
 90
    2
 70
    0
 43
0
 10
19.80692
 20
88.75776
 10
20.4089
 20
88.75776
  0
LWPOLYLINE
  5
31F
100
AcDbEntity
  8
PACKAGE_GEOMET_SILKSCREEN_BOTT
  6
ByLayer
 62
  256
370
   -1
100
AcDbPolyline
 90
    2
 70
    0
 43
0
 10
19.2786
 20
64.26708000000001
 10
18.76806
 20
64.26708000000001
  0
LWPOLYLINE
  5
320
100
AcDbEntity
  8
PACKAGE_GEOMET_SILKSCREEN_BOTT
  6
ByLayer
 62
  256
370
   -1
100
AcDbPolyline
 90
    2
 70
    0
 43
0
 10
21.46808
 20
66.8274
 10
21.46808
 20
64.26708000000001
  0
LWPOLYLINE
  5
321
100
AcDbEntity
  8
PACKAGE_GEOMET_SILKSCREEN_BOTT
  6
ByLayer
 62
  256
370
   -1
100
AcDbPolyline
 90
    2
 70
    0
 43
0
 10
21.46808
 20
64.26708000000001
 10
20.97786
 20
64.26708000000001
  0
LWPOLYLINE
  5
322
100
AcDbEntity
  8
PACKAGE_GEOMET_SILKSCREEN_BOTT
  6
ByLayer
 62
  256
370
   -1
100
AcDbPolyline
 90
    2
 70
    0
 43
0
 10
19.2786
 20
64.26708000000001
 10
20.97786
 20
64.26708000000001
  0
LWPOLYLINE
  5
323
100
AcDbEntity
  8
PACKAGE_GEOMET_SILKSCREEN_BOTT
  6
ByLayer
 62
  256
370
   -1
100
AcDbPolyline
 90
    2
 70
    0
 43
0
 10
18.74774
 20
67.05853999999999
 10
19.2786
 20
67.05853999999999
  0
LWPOLYLINE
  5
324
100
AcDbEntity
  8
PACKAGE_GEOMET_SILKSCREEN_BOTT
  6
ByLayer
 62
  256
370
   -1
100
AcDbPolyline
 90
    2
 70
    0
 43
0
 10
20.97786
 20
67.05853999999999
 10
19.2786
 20
67.05853999999999
  0
LWPOLYLINE
  5
325
100
AcDbEntity
  8
PACKAGE_GEOMET_SILKSCREEN_BOTT
  6
ByLayer
 62
  256
370
   -1
100
AcDbPolyline
 90
    6
 70
    0
 43
0
 10
20.97786
 20
67.05853999999999
 10
21.12772
 20
67.0179
 10
21.26742
 20
66.95694
 10
21.39696
 20
66.90868
 10
21.46808
 20
66.84772
 10
21.46808
 20
66.8274
  0
LWPOLYLINE
  5
326
100
AcDbEntity
  8
PACKAGE_GEOMET_SILKSCREEN_BOTT
  6
ByLayer
 62
  256
370
   -1
100
AcDbPolyline
 90
    2
 70
    0
 43
0
 10
20.01774
 20
55.12816
 10
20.01774
 20
64.04864000000001
  0
LWPOLYLINE
  5
327
100
AcDbEntity
  8
PACKAGE_GEOMET_SILKSCREEN_BOTT
  6
ByLayer
 62
  256
370
   -1
100
AcDbPolyline
 90
    2
 70
    0
 43
0
 10
89.23782
 20
88.5063
 10
88.24722
 20
88.5063
  0
LWPOLYLINE
  5
328
100
AcDbEntity
  8
PACKAGE_GEOMET_SILKSCREEN_BOTT
  6
ByLayer
 62
  256
370
   -1
100
AcDbPolyline
 90
    2
 70
    0
 43
0
 10
89.23782
 20
88.75776
 10
89.23782
 20
88.5063
  0
LWPOLYLINE
  5
329
100
AcDbEntity
  8
PACKAGE_GEOMET_SILKSCREEN_BOTT
  6
ByLayer
 62
  256
370
   -1
100
AcDbPolyline
 90
    2
 70
    0
 43
0
 10
88.21674
 20
88.75776
 10
89.23782
 20
88.75776
  0
LWPOLYLINE
  5
32A
100
AcDbEntity
  8
PACKAGE_GEOMET_SILKSCREEN_BOTT
  6
ByLayer
 62
  256
370
   -1
100
AcDbPolyline
 90
    2
 70
    0
 43
0
 10
89.23782
 20
88.75776
 10
89.83726
 20
88.75776
  0
LWPOLYLINE
  5
32B
100
AcDbEntity
  8
PACKAGE_GEOMET_SILKSCREEN_BOTT
  6
ByLayer
 62
  256
370
   -1
100
AcDbPolyline
 90
    2
 70
    0
 43
0
 10
89.83726
 20
89.60866
 10
89.83726
 20
88.75776
  0
LWPOLYLINE
  5
32C
100
AcDbEntity
  8
PACKAGE_GEOMET_SILKSCREEN_BOTT
  6
ByLayer
 62
  256
370
   -1
100
AcDbPolyline
 90
    2
 70
    0
 43
0
 10
89.83726
 20
89.90837999999999
 10
89.83726
 20
89.60866
  0
LWPOLYLINE
  5
32D
100
AcDbEntity
  8
PACKAGE_GEOMET_SILKSCREEN_BOTT
  6
ByLayer
 62
  256
370
   -1
100
AcDbPolyline
 90
    2
 70
    0
 43
0
 10
90.51797999999999
 20
89.90837999999999
 10
89.83726
 20
89.90837999999999
  0
LWPOLYLINE
  5
32E
100
AcDbEntity
  8
PACKAGE_GEOMET_SILKSCREEN_BOTT
  6
ByLayer
 62
  256
370
   -1
100
AcDbPolyline
 90
    3
 70
    0
 43
0
 10
91.46794
 20
77.36839999999999
 10
91.46794
 20
89.90837999999999
 10
90.51797999999999
 20
89.90837999999999
  0
LWPOLYLINE
  5
32F
100
AcDbEntity
  8
PACKAGE_GEOMET_SILKSCREEN_BOTT
  6
ByLayer
 62
  256
370
   -1
100
AcDbPolyline
 90
    2
 70
    0
 43
0
 10
91.059
 20
77.36839999999999
 10
91.46794
 20
77.36839999999999
  0
LWPOLYLINE
  5
330
100
AcDbEntity
  8
PACKAGE_GEOMET_SILKSCREEN_BOTT
  6
ByLayer
 62
  256
370
   -1
100
AcDbPolyline
 90
    2
 70
    0
 43
0
 10
90.88882
 20
77.36839999999999
 10
91.059
 20
77.36839999999999
  0
LWPOLYLINE
  5
331
100
AcDbEntity
  8
PACKAGE_GEOMET_SILKSCREEN_BOTT
  6
ByLayer
 62
  256
370
   -1
100
AcDbPolyline
 90
    2
 70
    0
 43
0
 10
93.81744
 20
63.90894
 10
90.88882
 20
77.36839999999999
  0
LWPOLYLINE
  5
332
100
AcDbEntity
  8
PACKAGE_GEOMET_SILKSCREEN_BOTT
  6
ByLayer
 62
  256
370
   -1
100
AcDbPolyline
 90
    2
 70
    0
 43
0
 10
90.8685
 20
63.90894
 10
93.81744
 20
63.90894
  0
LWPOLYLINE
  5
333
100
AcDbEntity
  8
PACKAGE_GEOMET_SILKSCREEN_BOTT
  6
ByLayer
 62
  256
370
   -1
100
AcDbPolyline
 90
    2
 70
    0
 43
0
 10
88.17864
 20
66.8274
 10
88.17864
 20
64.26708000000001
  0
LWPOLYLINE
  5
334
100
AcDbEntity
  8
PACKAGE_GEOMET_SILKSCREEN_BOTT
  6
ByLayer
 62
  256
370
   -1
100
AcDbPolyline
 90
    2
 70
    0
 43
0
 10
88.17864
 20
64.26708000000001
 10
88.66886
 20
64.26708000000001
  0
LWPOLYLINE
  5
335
100
AcDbEntity
  8
PACKAGE_GEOMET_SILKSCREEN_BOTT
  6
ByLayer
 62
  256
370
   -1
100
AcDbPolyline
 90
    2
 70
    0
 43
0
 10
90.35796000000001
 20
64.26708000000001
 10
88.66886
 20
64.26708000000001
  0
LWPOLYLINE
  5
336
100
AcDbEntity
  8
PACKAGE_GEOMET_SILKSCREEN_BOTT
  6
ByLayer
 62
  256
370
   -1
100
AcDbPolyline
 90
    2
 70
    0
 43
0
 10
90.35796000000001
 20
64.26708000000001
 10
90.8685
 20
64.26708000000001
  0
LWPOLYLINE
  5
337
100
AcDbEntity
  8
PACKAGE_GEOMET_SILKSCREEN_BOTT
  6
ByLayer
 62
  256
370
   -1
100
AcDbPolyline
 90
    2
 70
    0
 43
0
 10
90.8685
 20
77.36839999999999
 10
90.8685
 20
63.90894
  0
LWPOLYLINE
  5
338
100
AcDbEntity
  8
PACKAGE_GEOMET_SILKSCREEN_BOTT
  6
ByLayer
 62
  256
370
   -1
100
AcDbPolyline
 90
    6
 70
    0
 43
0
 10
88.66886
 20
67.05853999999999
 10
88.51900000000001
 20
67.0179
 10
88.36660000000001
 20
66.95694
 10
88.24722
 20
66.90868
 10
88.17864
 20
66.84772
 10
88.17864
 20
66.8274
  0
LWPOLYLINE
  5
339
100
AcDbEntity
  8
PACKAGE_GEOMET_SILKSCREEN_BOTT
  6
ByLayer
 62
  256
370
   -1
100
AcDbPolyline
 90
    2
 70
    0
 43
0
 10
90.8685
 20
67.05853999999999
 10
90.35796000000001
 20
67.05853999999999
  0
LWPOLYLINE
  5
33A
100
AcDbEntity
  8
PACKAGE_GEOMET_SILKSCREEN_BOTT
  6
ByLayer
 62
  256
370
   -1
100
AcDbPolyline
 90
    2
 70
    0
 43
0
 10
88.66886
 20
67.05853999999999
 10
90.35796000000001
 20
67.05853999999999
  0
LWPOLYLINE
  5
33B
100
AcDbEntity
  8
PACKAGE_GEOMET_SILKSCREEN_BOTT
  6
ByLayer
 62
  256
370
   -1
100
AcDbPolyline
 90
    2
 70
    0
 43
0
 10
89.61882
 20
64.04864000000001
 10
89.61882
 20
55.12816
  0
LWPOLYLINE
  5
33C
100
AcDbEntity
  8
PACKAGE_GEOMET_SILKSCREEN_BOTT
  6
ByLayer
 62
  256
370
   -1
100
AcDbPolyline
 90
    2
 70
    0
 43
0
 10
89.61882
 20
55.12816
 10
20.01774
 20
55.12816
  0
LWPOLYLINE
  5
33D
100
AcDbEntity
  8
PACKAGE_GEOMET_SILKSCREEN_BOTT
  6
ByLayer
 62
  256
370
   -1
100
AcDbPolyline
 90
    5
 70
    0
 43
0
 10
18.31848
 20
60.71616
 10
17.0688
 20
60.71616
 10
18.31848
 20
80.81518
 10
18.31848
 20
90.22842
 10
21.05914
 20
90.22842
  0
LWPOLYLINE
  5
33E
100
AcDbEntity
  8
PACKAGE_GEOMET_SILKSCREEN_BOTT
  6
ByLayer
 62
  256
370
   -1
100
AcDbPolyline
 90
    2
 70
    0
 43
0
 10
91.31807999999999
 20
80.81518
 10
91.31807999999999
 20
60.71616
  0
LWPOLYLINE
  5
33F
100
AcDbEntity
  8
PACKAGE_GEOMET_SILKSCREEN_BOTT
  6
ByLayer
 62
  256
370
   -1
100
AcDbPolyline
 90
    3
 70
    0
 43
0
 10
91.31807999999999
 20
60.71616
 10
88.31834000000001
 20
60.71616
 10
88.31834000000001
 20
79.81695999999999
  0
LWPOLYLINE
  5
340
100
AcDbEntity
  8
PACKAGE_GEOMET_SILKSCREEN_BOTT
  6
ByLayer
 62
  256
370
   -1
100
AcDbPolyline
 90
    2
 70
    0
 43
0
 10
18.31848
 20
80.81518
 10
18.31848
 20
60.71616
  0
LWPOLYLINE
  5
341
100
AcDbEntity
  8
PACKAGE_GEOMET_SILKSCREEN_BOTT
  6
ByLayer
 62
  256
370
   -1
100
AcDbPolyline
 90
    5
 70
    0
 43
0
 10
88.6079
 20
90.22842
 10
91.31807999999999
 20
90.22842
 10
91.31807999999999
 20
80.81518
 10
92.56776000000001
 20
60.71616
 10
91.31807999999999
 20
60.71616
  0
LWPOLYLINE
  5
342
100
AcDbEntity
  8
PACKAGE_GEOMET_SILKSCREEN_BOTT
  6
ByLayer
 62
  256
370
   -1
100
AcDbPolyline
 90
    2
 70
    0
 43
0
 10
57.63514
 20
90.22842
 10
58.90514
 20
90.22842
  0
LWPOLYLINE
  5
343
100
AcDbEntity
  8
PACKAGE_GEOMET_SILKSCREEN_BOTT
  6
ByLayer
 62
  256
370
   -1
100
AcDbPolyline
 90
    2
 70
    0
 43
0
 10
59.15914
 20
80.81518
 10
57.88914
 20
80.81518
  0
LWPOLYLINE
  5
344
100
AcDbEntity
  8
PACKAGE_GEOMET_SILKSCREEN_BOTT
  6
ByLayer
 62
  256
370
   -1
100
AcDbPolyline
 90
    3
 70
    0
 43
0
 10
21.31822
 20
79.81695999999999
 10
21.31822
 20
60.71616
 10
18.31848
 20
60.71616
  0
LWPOLYLINE
  5
345
100
AcDbEntity
  8
PACKAGE_GEOMET_SILKSCREEN_BOTT
  6
ByLayer
 62
  256
370
   -1
100
AcDbPolyline
 90
    2
 70
    0
 43
0
 10
91.31807999999999
 20
80.81518
 10
88.84412
 20
80.81518
  0
LWPOLYLINE
  5
346
100
AcDbEntity
  8
PACKAGE_GEOMET_SILKSCREEN_BOTT
  6
ByLayer
 62
  256
370
   -1
100
AcDbPolyline
 90
    2
 70
    0
 43
0
 10
21.19376
 20
80.81518
 10
18.31848
 20
80.81518
  0
LWPOLYLINE
  5
347
100
AcDbEntity
  8
0
  6
ByLayer
 62
  256
370
   -1
100
AcDbPolyline
 90
    4
 70
    1
 43
0
 10
88.34374
 20
74.95032
 10
88.34374
 20
76.39812000000001
 42
0.9999999999999999
 10
88.03894
 20
76.39812000000001
 10
88.03894
 20
74.95032
 42
0.9999999999999999
  0
LWPOLYLINE
  5
348
100
AcDbEntity
  8
0
  6
ByLayer
 62
  256
370
   -1
100
AcDbPolyline
 90
    4
 70
    1
 43
0
 10
87.84336
 20
74.95032
 10
87.84336
 20
76.39812000000001
 42
0.9999999999999999
 10
87.53856
 20
76.39812000000001
 10
87.53856
 20
74.95032
 42
0.9999999999999999
  0
LWPOLYLINE
  5
349
100
AcDbEntity
  8
0
  6
ByLayer
 62
  256
370
   -1
100
AcDbPolyline
 90
    4
 70
    1
 43
0
 10
87.34551999999999
 20
74.95032
 10
87.34551999999999
 20
76.39812000000001
 42
0.9999999999999999
 10
87.04071999999999
 20
76.39812000000001
 10
87.04071999999999
 20
74.95032
 42
0.9999999999999999
  0
LWPOLYLINE
  5
34A
100
AcDbEntity
  8
0
  6
ByLayer
 62
  256
370
   -1
100
AcDbPolyline
 90
    4
 70
    1
 43
0
 10
86.84514
 20
74.95032
 10
86.84514
 20
76.39812000000001
 42
0.9999999999999999
 10
86.54034
 20
76.39812000000001
 10
86.54034
 20
74.95032
 42
0.9999999999999999
  0
LWPOLYLINE
  5
34B
100
AcDbEntity
  8
0
  6
ByLayer
 62
  256
370
   -1
100
AcDbPolyline
 90
    4
 70
    1
 43
0
 10
86.34475999999999
 20
74.95032
 10
86.34475999999999
 20
76.39812000000001
 42
0.9999999999999999
 10
86.03995999999999
 20
76.39812000000001
 10
86.03995999999999
 20
74.95032
 42
0.9999999999999999
  0
LWPOLYLINE
  5
34C
100
AcDbEntity
  8
0
  6
ByLayer
 62
  256
370
   -1
100
AcDbPolyline
 90
    4
 70
    1
 43
0
 10
85.84438
 20
74.95032
 10
85.84438
 20
76.39812000000001
 42
0.9999999999999999
 10
85.53958
 20
76.39812000000001
 10
85.53958
 20
74.95032
 42
0.9999999999999999
  0
LWPOLYLINE
  5
34D
100
AcDbEntity
  8
0
  6
ByLayer
 62
  256
370
   -1
100
AcDbPolyline
 90
    4
 70
    1
 43
0
 10
85.34399999999999
 20
74.95032
 10
85.34399999999999
 20
76.39812000000001
 42
0.9999999999999999
 10
85.03919999999999
 20
76.39812000000001
 10
85.03919999999999
 20
74.95032
 42
0.9999999999999999
  0
LWPOLYLINE
  5
34E
100
AcDbEntity
  8
0
  6
ByLayer
 62
  256
370
   -1
100
AcDbPolyline
 90
    4
 70
    1
 43
0
 10
84.84362
 20
74.95032
 10
84.84362
 20
76.39812000000001
 42
0.9999999999999999
 10
84.53882
 20
76.39812000000001
 10
84.53882
 20
74.95032
 42
0.9999999999999999
  0
LWPOLYLINE
  5
34F
100
AcDbEntity
  8
0
  6
ByLayer
 62
  256
370
   -1
100
AcDbPolyline
 90
    4
 70
    1
 43
0
 10
84.34323999999999
 20
74.95032
 10
84.34323999999999
 20
76.39812000000001
 42
0.9999999999999999
 10
84.03843999999999
 20
76.39812000000001
 10
84.03843999999999
 20
74.95032
 42
0.9999999999999999
  0
LWPOLYLINE
  5
350
100
AcDbEntity
  8
0
  6
ByLayer
 62
  256
370
   -1
100
AcDbPolyline
 90
    4
 70
    1
 43
0
 10
83.8454
 20
74.95032
 10
83.8454
 20
76.39812000000001
 42
0.9999999999999999
 10
83.5406
 20
76.39812000000001
 10
83.5406
 20
74.95032
 42
0.9999999999999999
  0
LWPOLYLINE
  5
351
100
AcDbEntity
  8
0
  6
ByLayer
 62
  256
370
   -1
100
AcDbPolyline
 90
    4
 70
    1
 43
0
 10
83.34502000000001
 20
74.95032
 10
83.34502000000001
 20
76.39812000000001
 42
0.9999999999999999
 10
83.04022000000001
 20
76.39812000000001
 10
83.04022000000001
 20
74.95032
 42
0.9999999999999999
  0
LWPOLYLINE
  5
352
100
AcDbEntity
  8
0
  6
ByLayer
 62
  256
370
   -1
100
AcDbPolyline
 90
    4
 70
    1
 43
0
 10
82.84464
 20
74.95032
 10
82.84464
 20
76.39812000000001
 42
0.9999999999999999
 10
82.53984
 20
76.39812000000001
 10
82.53984
 20
74.95032
 42
0.9999999999999999
  0
LWPOLYLINE
  5
353
100
AcDbEntity
  8
0
  6
ByLayer
 62
  256
370
   -1
100
AcDbPolyline
 90
    4
 70
    1
 43
0
 10
82.34426000000001
 20
74.95032
 10
82.34426000000001
 20
76.39812000000001
 42
0.9999999999999999
 10
82.03946000000001
 20
76.39812000000001
 10
82.03946000000001
 20
74.95032
 42
0.9999999999999999
  0
LWPOLYLINE
  5
354
100
AcDbEntity
  8
0
  6
ByLayer
 62
  256
370
   -1
100
AcDbPolyline
 90
    4
 70
    1
 43
0
 10
81.84388
 20
74.95032
 10
81.84388
 20
76.39812000000001
 42
0.9999999999999999
 10
81.53908
 20
76.39812000000001
 10
81.53908
 20
74.95032
 42
0.9999999999999999
  0
LWPOLYLINE
  5
355
100
AcDbEntity
  8
0
  6
ByLayer
 62
  256
370
   -1
100
AcDbPolyline
 90
    4
 70
    1
 43
0
 10
81.34350000000001
 20
74.95032
 10
81.34350000000001
 20
76.39812000000001
 42
0.9999999999999999
 10
81.03870000000001
 20
76.39812000000001
 10
81.03870000000001
 20
74.95032
 42
0.9999999999999999
  0
LWPOLYLINE
  5
356
100
AcDbEntity
  8
0
  6
ByLayer
 62
  256
370
   -1
100
AcDbPolyline
 90
    4
 70
    1
 43
0
 10
80.84566
 20
74.95032
 10
80.84566
 20
76.39812000000001
 42
0.9999999999999999
 10
80.54086
 20
76.39812000000001
 10
80.54086
 20
74.95032
 42
0.9999999999999999
  0
LWPOLYLINE
  5
357
100
AcDbEntity
  8
0
  6
ByLayer
 62
  256
370
   -1
100
AcDbPolyline
 90
    4
 70
    1
 43
0
 10
80.34528
 20
74.95032
 10
80.34528
 20
76.39812000000001
 42
0.9999999999999999
 10
80.04048
 20
76.39812000000001
 10
80.04048
 20
74.95032
 42
0.9999999999999999
  0
LWPOLYLINE
  5
358
100
AcDbEntity
  8
0
  6
ByLayer
 62
  256
370
   -1
100
AcDbPolyline
 90
    4
 70
    1
 43
0
 10
79.8449
 20
74.95032
 10
79.8449
 20
76.39812000000001
 42
0.9999999999999999
 10
79.5401
 20
76.39812000000001
 10
79.5401
 20
74.95032
 42
0.9999999999999999
  0
LWPOLYLINE
  5
359
100
AcDbEntity
  8
0
  6
ByLayer
 62
  256
370
   -1
100
AcDbPolyline
 90
    4
 70
    1
 43
0
 10
79.34452
 20
74.95032
 10
79.34452
 20
76.39812000000001
 42
0.9999999999999999
 10
79.03972
 20
76.39812000000001
 10
79.03972
 20
74.95032
 42
0.9999999999999999
  0
LWPOLYLINE
  5
35A
100
AcDbEntity
  8
0
  6
ByLayer
 62
  256
370
   -1
100
AcDbPolyline
 90
    4
 70
    1
 43
0
 10
78.84414
 20
74.95032
 10
78.84414
 20
76.39812000000001
 42
0.9999999999999999
 10
78.53934
 20
76.39812000000001
 10
78.53934
 20
74.95032
 42
0.9999999999999999
  0
LWPOLYLINE
  5
35B
100
AcDbEntity
  8
0
  6
ByLayer
 62
  256
370
   -1
100
AcDbPolyline
 90
    4
 70
    1
 43
0
 10
78.34376
 20
74.95032
 10
78.34376
 20
76.39812000000001
 42
0.9999999999999999
 10
78.03896
 20
76.39812000000001
 10
78.03896
 20
74.95032
 42
0.9999999999999999
  0
LWPOLYLINE
  5
35C
100
AcDbEntity
  8
0
  6
ByLayer
 62
  256
370
   -1
100
AcDbPolyline
 90
    4
 70
    1
 43
0
 10
77.84592000000001
 20
74.95032
 10
77.84592000000001
 20
76.39812000000001
 42
0.9999999999999999
 10
77.54112000000001
 20
76.39812000000001
 10
77.54112000000001
 20
74.95032
 42
0.9999999999999999
  0
LWPOLYLINE
  5
35D
100
AcDbEntity
  8
0
  6
ByLayer
 62
  256
370
   -1
100
AcDbPolyline
 90
    4
 70
    1
 43
0
 10
77.34554
 20
74.95032
 10
77.34554
 20
76.39812000000001
 42
0.9999999999999999
 10
77.04074
 20
76.39812000000001
 10
77.04074
 20
74.95032
 42
0.9999999999999999
  0
LWPOLYLINE
  5
35E
100
AcDbEntity
  8
0
  6
ByLayer
 62
  256
370
   -1
100
AcDbPolyline
 90
    4
 70
    1
 43
0
 10
76.84516000000001
 20
74.95032
 10
76.84516000000001
 20
76.39812000000001
 42
0.9999999999999999
 10
76.54036000000001
 20
76.39812000000001
 10
76.54036000000001
 20
74.95032
 42
0.9999999999999999
  0
LWPOLYLINE
  5
35F
100
AcDbEntity
  8
0
  6
ByLayer
 62
  256
370
   -1
100
AcDbPolyline
 90
    4
 70
    1
 43
0
 10
76.34478
 20
74.95032
 10
76.34478
 20
76.39812000000001
 42
0.9999999999999999
 10
76.03998
 20
76.39812000000001
 10
76.03998
 20
74.95032
 42
0.9999999999999999
  0
LWPOLYLINE
  5
360
100
AcDbEntity
  8
0
  6
ByLayer
 62
  256
370
   -1
100
AcDbPolyline
 90
    4
 70
    1
 43
0
 10
75.84439999999999
 20
74.95032
 10
75.84439999999999
 20
76.39812000000001
 42
0.9999999999999999
 10
75.53959999999999
 20
76.39812000000001
 10
75.53959999999999
 20
74.95032
 42
0.9999999999999999
  0
LWPOLYLINE
  5
361
100
AcDbEntity
  8
0
  6
ByLayer
 62
  256
370
   -1
100
AcDbPolyline
 90
    4
 70
    1
 43
0
 10
75.34402
 20
74.95032
 10
75.34402
 20
76.39812000000001
 42
0.9999999999999999
 10
75.03922
 20
76.39812000000001
 10
75.03922
 20
74.95032
 42
0.9999999999999999
  0
LWPOLYLINE
  5
362
100
AcDbEntity
  8
0
  6
ByLayer
 62
  256
370
   -1
100
AcDbPolyline
 90
    4
 70
    1
 43
0
 10
74.84363999999999
 20
74.95032
 10
74.84363999999999
 20
76.39812000000001
 42
0.9999999999999999
 10
74.53883999999999
 20
76.39812000000001
 10
74.53883999999999
 20
74.95032
 42
0.9999999999999999
  0
LWPOLYLINE
  5
363
100
AcDbEntity
  8
0
  6
ByLayer
 62
  256
370
   -1
100
AcDbPolyline
 90
    4
 70
    1
 43
0
 10
74.3458
 20
74.95032
 10
74.3458
 20
76.39812000000001
 42
0.9999999999999999
 10
74.041
 20
76.39812000000001
 10
74.041
 20
74.95032
 42
0.9999999999999999
  0
LWPOLYLINE
  5
364
100
AcDbEntity
  8
0
  6
ByLayer
 62
  256
370
   -1
100
AcDbPolyline
 90
    4
 70
    1
 43
0
 10
73.84542
 20
74.95032
 10
73.84542
 20
76.39812000000001
 42
0.9999999999999999
 10
73.54062
 20
76.39812000000001
 10
73.54062
 20
74.95032
 42
0.9999999999999999
  0
LWPOLYLINE
  5
365
100
AcDbEntity
  8
0
  6
ByLayer
 62
  256
370
   -1
100
AcDbPolyline
 90
    4
 70
    1
 43
0
 10
73.34504
 20
74.95032
 10
73.34504
 20
76.39812000000001
 42
0.9999999999999999
 10
73.04024
 20
76.39812000000001
 10
73.04024
 20
74.95032
 42
0.9999999999999999
  0
LWPOLYLINE
  5
366
100
AcDbEntity
  8
0
  6
ByLayer
 62
  256
370
   -1
100
AcDbPolyline
 90
    4
 70
    1
 43
0
 10
72.84466
 20
74.95032
 10
72.84466
 20
76.39812000000001
 42
0.9999999999999999
 10
72.53986
 20
76.39812000000001
 10
72.53986
 20
74.95032
 42
0.9999999999999999
  0
LWPOLYLINE
  5
367
100
AcDbEntity
  8
0
  6
ByLayer
 62
  256
370
   -1
100
AcDbPolyline
 90
    4
 70
    1
 43
0
 10
72.34428
 20
74.95032
 10
72.34428
 20
76.39812000000001
 42
0.9999999999999999
 10
72.03948
 20
76.39812000000001
 10
72.03948
 20
74.95032
 42
0.9999999999999999
  0
LWPOLYLINE
  5
368
100
AcDbEntity
  8
0
  6
ByLayer
 62
  256
370
   -1
100
AcDbPolyline
 90
    4
 70
    1
 43
0
 10
71.8439
 20
74.95032
 10
71.8439
 20
76.39812000000001
 42
0.9999999999999999
 10
71.5391
 20
76.39812000000001
 10
71.5391
 20
74.95032
 42
0.9999999999999999
  0
LWPOLYLINE
  5
369
100
AcDbEntity
  8
0
  6
ByLayer
 62
  256
370
   -1
100
AcDbPolyline
 90
    4
 70
    1
 43
0
 10
71.34352
 20
74.95032
 10
71.34352
 20
76.39812000000001
 42
0.9999999999999999
 10
71.03872
 20
76.39812000000001
 10
71.03872
 20
74.95032
 42
0.9999999999999999
  0
LWPOLYLINE
  5
36A
100
AcDbEntity
  8
0
  6
ByLayer
 62
  256
370
   -1
100
AcDbPolyline
 90
    4
 70
    1
 43
0
 10
70.84568
 20
74.95032
 10
70.84568
 20
76.39812000000001
 42
0.9999999999999999
 10
70.54088
 20
76.39812000000001
 10
70.54088
 20
74.95032
 42
0.9999999999999999
  0
LWPOLYLINE
  5
36B
100
AcDbEntity
  8
0
  6
ByLayer
 62
  256
370
   -1
100
AcDbPolyline
 90
    4
 70
    1
 43
0
 10
70.34529999999999
 20
74.95032
 10
70.34529999999999
 20
76.39812000000001
 42
0.9999999999999999
 10
70.04049999999999
 20
76.39812000000001
 10
70.04049999999999
 20
74.95032
 42
0.9999999999999999
  0
LWPOLYLINE
  5
36C
100
AcDbEntity
  8
0
  6
ByLayer
 62
  256
370
   -1
100
AcDbPolyline
 90
    4
 70
    1
 43
0
 10
69.84492
 20
74.95032
 10
69.84492
 20
76.39812000000001
 42
0.9999999999999999
 10
69.54012
 20
76.39812000000001
 10
69.54012
 20
74.95032
 42
0.9999999999999999
  0
LWPOLYLINE
  5
36D
100
AcDbEntity
  8
0
  6
ByLayer
 62
  256
370
   -1
100
AcDbPolyline
 90
    4
 70
    1
 43
0
 10
69.34453999999999
 20
74.95032
 10
69.34453999999999
 20
76.39812000000001
 42
0.9999999999999999
 10
69.03973999999999
 20
76.39812000000001
 10
69.03973999999999
 20
74.95032
 42
0.9999999999999999
  0
LWPOLYLINE
  5
36E
100
AcDbEntity
  8
0
  6
ByLayer
 62
  256
370
   -1
100
AcDbPolyline
 90
    4
 70
    1
 43
0
 10
68.84416
 20
74.95032
 10
68.84416
 20
76.39812000000001
 42
0.9999999999999999
 10
68.53936
 20
76.39812000000001
 10
68.53936
 20
74.95032
 42
0.9999999999999999
  0
LWPOLYLINE
  5
36F
100
AcDbEntity
  8
0
  6
ByLayer
 62
  256
370
   -1
100
AcDbPolyline
 90
    4
 70
    1
 43
0
 10
68.34378
 20
74.95032
 10
68.34378
 20
76.39812000000001
 42
0.9999999999999999
 10
68.03898
 20
76.39812000000001
 10
68.03898
 20
74.95032
 42
0.9999999999999999
  0
LWPOLYLINE
  5
370
100
AcDbEntity
  8
0
  6
ByLayer
 62
  256
370
   -1
100
AcDbPolyline
 90
    4
 70
    1
 43
0
 10
67.8434
 20
74.95032
 10
67.8434
 20
76.39812000000001
 42
0.9999999999999999
 10
67.5386
 20
76.39812000000001
 10
67.5386
 20
74.95032
 42
0.9999999999999999
  0
LWPOLYLINE
  5
371
100
AcDbEntity
  8
0
  6
ByLayer
 62
  256
370
   -1
100
AcDbPolyline
 90
    4
 70
    1
 43
0
 10
67.34556000000001
 20
74.95032
 10
67.34556000000001
 20
76.39812000000001
 42
0.9999999999999999
 10
67.04076000000001
 20
76.39812000000001
 10
67.04076000000001
 20
74.95032
 42
0.9999999999999999
  0
LWPOLYLINE
  5
372
100
AcDbEntity
  8
0
  6
ByLayer
 62
  256
370
   -1
100
AcDbPolyline
 90
    4
 70
    1
 43
0
 10
66.84518
 20
74.95032
 10
66.84518
 20
76.39812000000001
 42
0.9999999999999999
 10
66.54038
 20
76.39812000000001
 10
66.54038
 20
74.95032
 42
0.9999999999999999
  0
LWPOLYLINE
  5
373
100
AcDbEntity
  8
0
  6
ByLayer
 62
  256
370
   -1
100
AcDbPolyline
 90
    4
 70
    1
 43
0
 10
66.34480000000001
 20
74.95032
 10
66.34480000000001
 20
76.39812000000001
 42
0.9999999999999999
 10
66.04000000000001
 20
76.39812000000001
 10
66.04000000000001
 20
74.95032
 42
0.9999999999999999
  0
LWPOLYLINE
  5
374
100
AcDbEntity
  8
0
  6
ByLayer
 62
  256
370
   -1
100
AcDbPolyline
 90
    4
 70
    1
 43
0
 10
65.84442
 20
74.95032
 10
65.84442
 20
76.39812000000001
 42
0.9999999999999999
 10
65.53962
 20
76.39812000000001
 10
65.53962
 20
74.95032
 42
0.9999999999999999
  0
LWPOLYLINE
  5
375
100
AcDbEntity
  8
0
  6
ByLayer
 62
  256
370
   -1
100
AcDbPolyline
 90
    4
 70
    1
 43
0
 10
65.34404000000001
 20
74.95032
 10
65.34404000000001
 20
76.39812000000001
 42
0.9999999999999999
 10
65.03924000000001
 20
76.39812000000001
 10
65.03924000000001
 20
74.95032
 42
0.9999999999999999
  0
LWPOLYLINE
  5
376
100
AcDbEntity
  8
0
  6
ByLayer
 62
  256
370
   -1
100
AcDbPolyline
 90
    4
 70
    1
 43
0
 10
64.84366
 20
74.95032
 10
64.84366
 20
76.39812000000001
 42
0.9999999999999999
 10
64.53886
 20
76.39812000000001
 10
64.53886
 20
74.95032
 42
0.9999999999999999
  0
LWPOLYLINE
  5
377
100
AcDbEntity
  8
0
  6
ByLayer
 62
  256
370
   -1
100
AcDbPolyline
 90
    4
 70
    1
 43
0
 10
64.34327999999999
 20
74.95032
 10
64.34327999999999
 20
76.39812000000001
 42
0.9999999999999999
 10
64.03847999999999
 20
76.39812000000001
 10
64.03847999999999
 20
74.95032
 42
0.9999999999999999
  0
LWPOLYLINE
  5
378
100
AcDbEntity
  8
0
  6
ByLayer
 62
  256
370
   -1
100
AcDbPolyline
 90
    4
 70
    1
 43
0
 10
63.84544
 20
74.95032
 10
63.84544
 20
76.39812000000001
 42
0.9999999999999999
 10
63.54064
 20
76.39812000000001
 10
63.54064
 20
74.95032
 42
0.9999999999999999
  0
LWPOLYLINE
  5
379
100
AcDbEntity
  8
0
  6
ByLayer
 62
  256
370
   -1
100
AcDbPolyline
 90
    4
 70
    1
 43
0
 10
63.34506
 20
74.95032
 10
63.34506
 20
76.39812000000001
 42
0.9999999999999999
 10
63.04026
 20
76.39812000000001
 10
63.04026
 20
74.95032
 42
0.9999999999999999
  0
LWPOLYLINE
  5
37A
100
AcDbEntity
  8
0
  6
ByLayer
 62
  256
370
   -1
100
AcDbPolyline
 90
    4
 70
    1
 43
0
 10
62.84468
 20
74.95032
 10
62.84468
 20
76.39812000000001
 42
0.9999999999999999
 10
62.53988
 20
76.39812000000001
 10
62.53988
 20
74.95032
 42
0.9999999999999999
  0
LWPOLYLINE
  5
37B
100
AcDbEntity
  8
0
  6
ByLayer
 62
  256
370
   -1
100
AcDbPolyline
 90
    4
 70
    1
 43
0
 10
62.3443
 20
74.95032
 10
62.3443
 20
76.39812000000001
 42
0.9999999999999999
 10
62.0395
 20
76.39812000000001
 10
62.0395
 20
74.95032
 42
0.9999999999999999
  0
LWPOLYLINE
  5
37C
100
AcDbEntity
  8
0
  6
ByLayer
 62
  256
370
   -1
100
AcDbPolyline
 90
    4
 70
    1
 43
0
 10
61.84392
 20
74.95032
 10
61.84392
 20
76.39812000000001
 42
0.9999999999999999
 10
61.53912
 20
76.39812000000001
 10
61.53912
 20
74.95032
 42
0.9999999999999999
  0
LWPOLYLINE
  5
37D
100
AcDbEntity
  8
0
  6
ByLayer
 62
  256
370
   -1
100
AcDbPolyline
 90
    4
 70
    1
 43
0
 10
61.34354
 20
74.95032
 10
61.34354
 20
76.39812000000001
 42
0.9999999999999999
 10
61.03874
 20
76.39812000000001
 10
61.03874
 20
74.95032
 42
0.9999999999999999
  0
LWPOLYLINE
  5
37E
100
AcDbEntity
  8
0
  6
ByLayer
 62
  256
370
   -1
100
AcDbPolyline
 90
    4
 70
    1
 43
0
 10
60.8457
 20
74.95032
 10
60.8457
 20
76.39812000000001
 42
0.9999999999999999
 10
60.5409
 20
76.39812000000001
 10
60.5409
 20
74.95032
 42
0.9999999999999999
  0
LWPOLYLINE
  5
37F
100
AcDbEntity
  8
0
  6
ByLayer
 62
  256
370
   -1
100
AcDbPolyline
 90
    4
 70
    1
 43
0
 10
60.34532
 20
74.95032
 10
60.34532
 20
76.39812000000001
 42
0.9999999999999999
 10
60.04052
 20
76.39812000000001
 10
60.04052
 20
74.95032
 42
0.9999999999999999
  0
LWPOLYLINE
  5
380
100
AcDbEntity
  8
0
  6
ByLayer
 62
  256
370
   -1
100
AcDbPolyline
 90
    4
 70
    1
 43
0
 10
59.84494
 20
74.95032
 10
59.84494
 20
76.39812000000001
 42
0.9999999999999999
 10
59.54014
 20
76.39812000000001
 10
59.54014
 20
74.95032
 42
0.9999999999999999
  0
LWPOLYLINE
  5
381
100
AcDbEntity
  8
0
  6
ByLayer
 62
  256
370
   -1
100
AcDbPolyline
 90
    4
 70
    1
 43
0
 10
88.59520000000001
 20
66.7512
 10
88.59520000000001
 20
68.199
 42
0.9999999999999999
 10
88.29040000000001
 20
68.199
 10
88.29040000000001
 20
66.7512
 42
0.9999999999999999
  0
LWPOLYLINE
  5
382
100
AcDbEntity
  8
0
  6
ByLayer
 62
  256
370
   -1
100
AcDbPolyline
 90
    4
 70
    1
 43
0
 10
88.09482
 20
66.7512
 10
88.09482
 20
68.199
 42
0.9999999999999999
 10
87.79002
 20
68.199
 10
87.79002
 20
66.7512
 42
0.9999999999999999
  0
LWPOLYLINE
  5
383
100
AcDbEntity
  8
0
  6
ByLayer
 62
  256
370
   -1
100
AcDbPolyline
 90
    4
 70
    1
 43
0
 10
87.59444000000001
 20
66.7512
 10
87.59444000000001
 20
68.199
 42
0.9999999999999999
 10
87.28964000000001
 20
68.199
 10
87.28964000000001
 20
66.7512
 42
0.9999999999999999
  0
LWPOLYLINE
  5
384
100
AcDbEntity
  8
0
  6
ByLayer
 62
  256
370
   -1
100
AcDbPolyline
 90
    4
 70
    1
 43
0
 10
87.09406
 20
66.7512
 10
87.09406
 20
68.199
 42
0.9999999999999999
 10
86.78926
 20
68.199
 10
86.78926
 20
66.7512
 42
0.9999999999999999
  0
LWPOLYLINE
  5
385
100
AcDbEntity
  8
0
  6
ByLayer
 62
  256
370
   -1
100
AcDbPolyline
 90
    4
 70
    1
 43
0
 10
86.59368000000001
 20
66.7512
 10
86.59368000000001
 20
68.199
 42
0.9999999999999999
 10
86.28888000000001
 20
68.199
 10
86.28888000000001
 20
66.7512
 42
0.9999999999999999
  0
LWPOLYLINE
  5
386
100
AcDbEntity
  8
0
  6
ByLayer
 62
  256
370
   -1
100
AcDbPolyline
 90
    4
 70
    1
 43
0
 10
86.09584
 20
66.7512
 10
86.09584
 20
68.199
 42
0.9999999999999999
 10
85.79104
 20
68.199
 10
85.79104
 20
66.7512
 42
0.9999999999999999
  0
LWPOLYLINE
  5
387
100
AcDbEntity
  8
0
  6
ByLayer
 62
  256
370
   -1
100
AcDbPolyline
 90
    4
 70
    1
 43
0
 10
85.59546
 20
66.7512
 10
85.59546
 20
68.199
 42
0.9999999999999999
 10
85.29066
 20
68.199
 10
85.29066
 20
66.7512
 42
0.9999999999999999
  0
LWPOLYLINE
  5
388
100
AcDbEntity
  8
0
  6
ByLayer
 62
  256
370
   -1
100
AcDbPolyline
 90
    4
 70
    1
 43
0
 10
85.09508
 20
66.7512
 10
85.09508
 20
68.199
 42
0.9999999999999999
 10
84.79028
 20
68.199
 10
84.79028
 20
66.7512
 42
0.9999999999999999
  0
LWPOLYLINE
  5
389
100
AcDbEntity
  8
0
  6
ByLayer
 62
  256
370
   -1
100
AcDbPolyline
 90
    4
 70
    1
 43
0
 10
84.5947
 20
66.7512
 10
84.5947
 20
68.199
 42
0.9999999999999999
 10
84.2899
 20
68.199
 10
84.2899
 20
66.7512
 42
0.9999999999999999
  0
LWPOLYLINE
  5
38A
100
AcDbEntity
  8
0
  6
ByLayer
 62
  256
370
   -1
100
AcDbPolyline
 90
    4
 70
    1
 43
0
 10
84.09432
 20
66.7512
 10
84.09432
 20
68.199
 42
0.9999999999999999
 10
83.78952
 20
68.199
 10
83.78952
 20
66.7512
 42
0.9999999999999999
  0
LWPOLYLINE
  5
38B
100
AcDbEntity
  8
0
  6
ByLayer
 62
  256
370
   -1
100
AcDbPolyline
 90
    4
 70
    1
 43
0
 10
83.59394
 20
66.7512
 10
83.59394
 20
68.199
 42
0.9999999999999999
 10
83.28914
 20
68.199
 10
83.28914
 20
66.7512
 42
0.9999999999999999
  0
LWPOLYLINE
  5
38C
100
AcDbEntity
  8
0
  6
ByLayer
 62
  256
370
   -1
100
AcDbPolyline
 90
    4
 70
    1
 43
0
 10
83.09356
 20
66.7512
 10
83.09356
 20
68.199
 42
0.9999999999999999
 10
82.78876
 20
68.199
 10
82.78876
 20
66.7512
 42
0.9999999999999999
  0
LWPOLYLINE
  5
38D
100
AcDbEntity
  8
0
  6
ByLayer
 62
  256
370
   -1
100
AcDbPolyline
 90
    4
 70
    1
 43
0
 10
82.59572
 20
66.7512
 10
82.59572
 20
68.199
 42
0.9999999999999999
 10
82.29092
 20
68.199
 10
82.29092
 20
66.7512
 42
0.9999999999999999
  0
LWPOLYLINE
  5
38E
100
AcDbEntity
  8
0
  6
ByLayer
 62
  256
370
   -1
100
AcDbPolyline
 90
    4
 70
    1
 43
0
 10
82.09533999999999
 20
66.7512
 10
82.09533999999999
 20
68.199
 42
0.9999999999999999
 10
81.79053999999999
 20
68.199
 10
81.79053999999999
 20
66.7512
 42
0.9999999999999999
  0
LWPOLYLINE
  5
38F
100
AcDbEntity
  8
0
  6
ByLayer
 62
  256
370
   -1
100
AcDbPolyline
 90
    4
 70
    1
 43
0
 10
81.59496
 20
66.7512
 10
81.59496
 20
68.199
 42
0.9999999999999999
 10
81.29016
 20
68.199
 10
81.29016
 20
66.7512
 42
0.9999999999999999
  0
LWPOLYLINE
  5
390
100
AcDbEntity
  8
0
  6
ByLayer
 62
  256
370
   -1
100
AcDbPolyline
 90
    4
 70
    1
 43
0
 10
81.09457999999999
 20
66.7512
 10
81.09457999999999
 20
68.199
 42
0.9999999999999999
 10
80.78977999999999
 20
68.199
 10
80.78977999999999
 20
66.7512
 42
0.9999999999999999
  0
LWPOLYLINE
  5
391
100
AcDbEntity
  8
0
  6
ByLayer
 62
  256
370
   -1
100
AcDbPolyline
 90
    4
 70
    1
 43
0
 10
80.5942
 20
66.7512
 10
80.5942
 20
68.199
 42
0.9999999999999999
 10
80.2894
 20
68.199
 10
80.2894
 20
66.7512
 42
0.9999999999999999
  0
LWPOLYLINE
  5
392
100
AcDbEntity
  8
0
  6
ByLayer
 62
  256
370
   -1
100
AcDbPolyline
 90
    4
 70
    1
 43
0
 10
80.09381999999999
 20
66.7512
 10
80.09381999999999
 20
68.199
 42
0.9999999999999999
 10
79.78901999999999
 20
68.199
 10
79.78901999999999
 20
66.7512
 42
0.9999999999999999
  0
LWPOLYLINE
  5
393
100
AcDbEntity
  8
0
  6
ByLayer
 62
  256
370
   -1
100
AcDbPolyline
 90
    4
 70
    1
 43
0
 10
79.59344
 20
66.7512
 10
79.59344
 20
68.199
 42
0.9999999999999999
 10
79.28864
 20
68.199
 10
79.28864
 20
66.7512
 42
0.9999999999999999
  0
LWPOLYLINE
  5
394
100
AcDbEntity
  8
0
  6
ByLayer
 62
  256
370
   -1
100
AcDbPolyline
 90
    4
 70
    1
 43
0
 10
79.0956
 20
66.7512
 10
79.0956
 20
68.199
 42
0.9999999999999999
 10
78.7908
 20
68.199
 10
78.7908
 20
66.7512
 42
0.9999999999999999
  0
LWPOLYLINE
  5
395
100
AcDbEntity
  8
0
  6
ByLayer
 62
  256
370
   -1
100
AcDbPolyline
 90
    4
 70
    1
 43
0
 10
78.59522
 20
66.7512
 10
78.59522
 20
68.199
 42
0.9999999999999999
 10
78.29042
 20
68.199
 10
78.29042
 20
66.7512
 42
0.9999999999999999
  0
LWPOLYLINE
  5
396
100
AcDbEntity
  8
0
  6
ByLayer
 62
  256
370
   -1
100
AcDbPolyline
 90
    4
 70
    1
 43
0
 10
78.09484
 20
66.7512
 10
78.09484
 20
68.199
 42
0.9999999999999999
 10
77.79004
 20
68.199
 10
77.79004
 20
66.7512
 42
0.9999999999999999
  0
LWPOLYLINE
  5
397
100
AcDbEntity
  8
0
  6
ByLayer
 62
  256
370
   -1
100
AcDbPolyline
 90
    4
 70
    1
 43
0
 10
77.59446
 20
66.7512
 10
77.59446
 20
68.199
 42
0.9999999999999999
 10
77.28966
 20
68.199
 10
77.28966
 20
66.7512
 42
0.9999999999999999
  0
LWPOLYLINE
  5
398
100
AcDbEntity
  8
0
  6
ByLayer
 62
  256
370
   -1
100
AcDbPolyline
 90
    4
 70
    1
 43
0
 10
77.09408000000001
 20
66.7512
 10
77.09408000000001
 20
68.199
 42
0.9999999999999999
 10
76.78928000000001
 20
68.199
 10
76.78928000000001
 20
66.7512
 42
0.9999999999999999
  0
LWPOLYLINE
  5
399
100
AcDbEntity
  8
0
  6
ByLayer
 62
  256
370
   -1
100
AcDbPolyline
 90
    4
 70
    1
 43
0
 10
76.5937
 20
66.7512
 10
76.5937
 20
68.199
 42
0.9999999999999999
 10
76.2889
 20
68.199
 10
76.2889
 20
66.7512
 42
0.9999999999999999
  0
LWPOLYLINE
  5
39A
100
AcDbEntity
  8
0
  6
ByLayer
 62
  256
370
   -1
100
AcDbPolyline
 90
    4
 70
    1
 43
0
 10
76.09332000000001
 20
66.7512
 10
76.09332000000001
 20
68.199
 42
0.9999999999999999
 10
75.78852000000001
 20
68.199
 10
75.78852000000001
 20
66.7512
 42
0.9999999999999999
  0
LWPOLYLINE
  5
39B
100
AcDbEntity
  8
0
  6
ByLayer
 62
  256
370
   -1
100
AcDbPolyline
 90
    4
 70
    1
 43
0
 10
75.59547999999999
 20
66.7512
 10
75.59547999999999
 20
68.199
 42
0.9999999999999999
 10
75.29067999999999
 20
68.199
 10
75.29067999999999
 20
66.7512
 42
0.9999999999999999
  0
LWPOLYLINE
  5
39C
100
AcDbEntity
  8
0
  6
ByLayer
 62
  256
370
   -1
100
AcDbPolyline
 90
    4
 70
    1
 43
0
 10
75.0951
 20
66.7512
 10
75.0951
 20
68.199
 42
0.9999999999999999
 10
74.7903
 20
68.199
 10
74.7903
 20
66.7512
 42
0.9999999999999999
  0
LWPOLYLINE
  5
39D
100
AcDbEntity
  8
0
  6
ByLayer
 62
  256
370
   -1
100
AcDbPolyline
 90
    4
 70
    1
 43
0
 10
74.59472
 20
66.7512
 10
74.59472
 20
68.199
 42
0.9999999999999999
 10
74.28992
 20
68.199
 10
74.28992
 20
66.7512
 42
0.9999999999999999
  0
LWPOLYLINE
  5
39E
100
AcDbEntity
  8
0
  6
ByLayer
 62
  256
370
   -1
100
AcDbPolyline
 90
    4
 70
    1
 43
0
 10
74.09434
 20
66.7512
 10
74.09434
 20
68.199
 42
0.9999999999999999
 10
73.78954
 20
68.199
 10
73.78954
 20
66.7512
 42
0.9999999999999999
  0
LWPOLYLINE
  5
39F
100
AcDbEntity
  8
0
  6
ByLayer
 62
  256
370
   -1
100
AcDbPolyline
 90
    4
 70
    1
 43
0
 10
73.59396
 20
66.7512
 10
73.59396
 20
68.199
 42
0.9999999999999999
 10
73.28916
 20
68.199
 10
73.28916
 20
66.7512
 42
0.9999999999999999
  0
LWPOLYLINE
  5
3A0
100
AcDbEntity
  8
0
  6
ByLayer
 62
  256
370
   -1
100
AcDbPolyline
 90
    4
 70
    1
 43
0
 10
73.09358
 20
66.7512
 10
73.09358
 20
68.199
 42
0.9999999999999999
 10
72.78878
 20
68.199
 10
72.78878
 20
66.7512
 42
0.9999999999999999
  0
LWPOLYLINE
  5
3A1
100
AcDbEntity
  8
0
  6
ByLayer
 62
  256
370
   -1
100
AcDbPolyline
 90
    4
 70
    1
 43
0
 10
72.59574000000001
 20
66.7512
 10
72.59574000000001
 20
68.199
 42
0.9999999999999999
 10
72.29094000000001
 20
68.199
 10
72.29094000000001
 20
66.7512
 42
0.9999999999999999
  0
LWPOLYLINE
  5
3A2
100
AcDbEntity
  8
0
  6
ByLayer
 62
  256
370
   -1
100
AcDbPolyline
 90
    4
 70
    1
 43
0
 10
72.09536
 20
66.7512
 10
72.09536
 20
68.199
 42
0.9999999999999999
 10
71.79056
 20
68.199
 10
71.79056
 20
66.7512
 42
0.9999999999999999
  0
LWPOLYLINE
  5
3A3
100
AcDbEntity
  8
0
  6
ByLayer
 62
  256
370
   -1
100
AcDbPolyline
 90
    4
 70
    1
 43
0
 10
71.59498000000001
 20
66.7512
 10
71.59498000000001
 20
68.199
 42
0.9999999999999999
 10
71.29018000000001
 20
68.199
 10
71.29018000000001
 20
66.7512
 42
0.9999999999999999
  0
LWPOLYLINE
  5
3A4
100
AcDbEntity
  8
0
  6
ByLayer
 62
  256
370
   -1
100
AcDbPolyline
 90
    4
 70
    1
 43
0
 10
71.0946
 20
66.7512
 10
71.0946
 20
68.199
 42
0.9999999999999999
 10
70.7898
 20
68.199
 10
70.7898
 20
66.7512
 42
0.9999999999999999
  0
LWPOLYLINE
  5
3A5
100
AcDbEntity
  8
0
  6
ByLayer
 62
  256
370
   -1
100
AcDbPolyline
 90
    4
 70
    1
 43
0
 10
70.59422000000001
 20
66.7512
 10
70.59422000000001
 20
68.199
 42
0.9999999999999999
 10
70.28942000000001
 20
68.199
 10
70.28942000000001
 20
66.7512
 42
0.9999999999999999
  0
LWPOLYLINE
  5
3A6
100
AcDbEntity
  8
0
  6
ByLayer
 62
  256
370
   -1
100
AcDbPolyline
 90
    4
 70
    1
 43
0
 10
70.09384
 20
66.7512
 10
70.09384
 20
68.199
 42
0.9999999999999999
 10
69.78904
 20
68.199
 10
69.78904
 20
66.7512
 42
0.9999999999999999
  0
LWPOLYLINE
  5
3A7
100
AcDbEntity
  8
0
  6
ByLayer
 62
  256
370
   -1
100
AcDbPolyline
 90
    4
 70
    1
 43
0
 10
69.59345999999999
 20
66.7512
 10
69.59345999999999
 20
68.199
 42
0.9999999999999999
 10
69.28865999999999
 20
68.199
 10
69.28865999999999
 20
66.7512
 42
0.9999999999999999
  0
LWPOLYLINE
  5
3A8
100
AcDbEntity
  8
0
  6
ByLayer
 62
  256
370
   -1
100
AcDbPolyline
 90
    4
 70
    1
 43
0
 10
69.09562
 20
66.7512
 10
69.09562
 20
68.199
 42
0.9999999999999999
 10
68.79082
 20
68.199
 10
68.79082
 20
66.7512
 42
0.9999999999999999
  0
LWPOLYLINE
  5
3A9
100
AcDbEntity
  8
0
  6
ByLayer
 62
  256
370
   -1
100
AcDbPolyline
 90
    4
 70
    1
 43
0
 10
68.59524
 20
66.7512
 10
68.59524
 20
68.199
 42
0.9999999999999999
 10
68.29044
 20
68.199
 10
68.29044
 20
66.7512
 42
0.9999999999999999
  0
LWPOLYLINE
  5
3AA
100
AcDbEntity
  8
0
  6
ByLayer
 62
  256
370
   -1
100
AcDbPolyline
 90
    4
 70
    1
 43
0
 10
68.09486
 20
66.7512
 10
68.09486
 20
68.199
 42
0.9999999999999999
 10
67.79006
 20
68.199
 10
67.79006
 20
66.7512
 42
0.9999999999999999
  0
LWPOLYLINE
  5
3AB
100
AcDbEntity
  8
0
  6
ByLayer
 62
  256
370
   -1
100
AcDbPolyline
 90
    4
 70
    1
 43
0
 10
67.59448
 20
66.7512
 10
67.59448
 20
68.199
 42
0.9999999999999999
 10
67.28968
 20
68.199
 10
67.28968
 20
66.7512
 42
0.9999999999999999
  0
LWPOLYLINE
  5
3AC
100
AcDbEntity
  8
0
  6
ByLayer
 62
  256
370
   -1
100
AcDbPolyline
 90
    4
 70
    1
 43
0
 10
67.0941
 20
66.7512
 10
67.0941
 20
68.199
 42
0.9999999999999999
 10
66.7893
 20
68.199
 10
66.7893
 20
66.7512
 42
0.9999999999999999
  0
LWPOLYLINE
  5
3AD
100
AcDbEntity
  8
0
  6
ByLayer
 62
  256
370
   -1
100
AcDbPolyline
 90
    4
 70
    1
 43
0
 10
66.59372
 20
66.7512
 10
66.59372
 20
68.199
 42
0.9999999999999999
 10
66.28892
 20
68.199
 10
66.28892
 20
66.7512
 42
0.9999999999999999
  0
LWPOLYLINE
  5
3AE
100
AcDbEntity
  8
0
  6
ByLayer
 62
  256
370
   -1
100
AcDbPolyline
 90
    4
 70
    1
 43
0
 10
66.09587999999999
 20
66.7512
 10
66.09587999999999
 20
68.199
 42
0.9999999999999999
 10
65.79107999999999
 20
68.199
 10
65.79107999999999
 20
66.7512
 42
0.9999999999999999
  0
LWPOLYLINE
  5
3AF
100
AcDbEntity
  8
0
  6
ByLayer
 62
  256
370
   -1
100
AcDbPolyline
 90
    4
 70
    1
 43
0
 10
65.5955
 20
66.7512
 10
65.5955
 20
68.199
 42
0.9999999999999999
 10
65.2907
 20
68.199
 10
65.2907
 20
66.7512
 42
0.9999999999999999
  0
LWPOLYLINE
  5
3B0
100
AcDbEntity
  8
0
  6
ByLayer
 62
  256
370
   -1
100
AcDbPolyline
 90
    4
 70
    1
 43
0
 10
65.09511999999999
 20
66.7512
 10
65.09511999999999
 20
68.199
 42
0.9999999999999999
 10
64.79031999999999
 20
68.199
 10
64.79031999999999
 20
66.7512
 42
0.9999999999999999
  0
LWPOLYLINE
  5
3B1
100
AcDbEntity
  8
0
  6
ByLayer
 62
  256
370
   -1
100
AcDbPolyline
 90
    4
 70
    1
 43
0
 10
64.59474
 20
66.7512
 10
64.59474
 20
68.199
 42
0.9999999999999999
 10
64.28994
 20
68.199
 10
64.28994
 20
66.7512
 42
0.9999999999999999
  0
LWPOLYLINE
  5
3B2
100
AcDbEntity
  8
0
  6
ByLayer
 62
  256
370
   -1
100
AcDbPolyline
 90
    4
 70
    1
 43
0
 10
64.09435999999999
 20
66.7512
 10
64.09435999999999
 20
68.199
 42
0.9999999999999999
 10
63.78955999999999
 20
68.199
 10
63.78955999999999
 20
66.7512
 42
0.9999999999999999
  0
LWPOLYLINE
  5
3B3
100
AcDbEntity
  8
0
  6
ByLayer
 62
  256
370
   -1
100
AcDbPolyline
 90
    4
 70
    1
 43
0
 10
63.59398
 20
66.7512
 10
63.59398
 20
68.199
 42
0.9999999999999999
 10
63.28918
 20
68.199
 10
63.28918
 20
66.7512
 42
0.9999999999999999
  0
LWPOLYLINE
  5
3B4
100
AcDbEntity
  8
0
  6
ByLayer
 62
  256
370
   -1
100
AcDbPolyline
 90
    4
 70
    1
 43
0
 10
63.0936
 20
66.7512
 10
63.0936
 20
68.199
 42
0.9999999999999999
 10
62.7888
 20
68.199
 10
62.7888
 20
66.7512
 42
0.9999999999999999
  0
LWPOLYLINE
  5
3B5
100
AcDbEntity
  8
0
  6
ByLayer
 62
  256
370
   -1
100
AcDbPolyline
 90
    4
 70
    1
 43
0
 10
62.59576
 20
66.7512
 10
62.59576
 20
68.199
 42
0.9999999999999999
 10
62.29096
 20
68.199
 10
62.29096
 20
66.7512
 42
0.9999999999999999
  0
LWPOLYLINE
  5
3B6
100
AcDbEntity
  8
0
  6
ByLayer
 62
  256
370
   -1
100
AcDbPolyline
 90
    4
 70
    1
 43
0
 10
62.09538
 20
66.7512
 10
62.09538
 20
68.199
 42
0.9999999999999999
 10
61.79058
 20
68.199
 10
61.79058
 20
66.7512
 42
0.9999999999999999
  0
LWPOLYLINE
  5
3B7
100
AcDbEntity
  8
0
  6
ByLayer
 62
  256
370
   -1
100
AcDbPolyline
 90
    4
 70
    1
 43
0
 10
61.595
 20
66.7512
 10
61.595
 20
68.199
 42
0.9999999999999999
 10
61.2902
 20
68.199
 10
61.2902
 20
66.7512
 42
0.9999999999999999
  0
LWPOLYLINE
  5
3B8
100
AcDbEntity
  8
0
  6
ByLayer
 62
  256
370
   -1
100
AcDbPolyline
 90
    4
 70
    1
 43
0
 10
61.09462
 20
66.7512
 10
61.09462
 20
68.199
 42
0.9999999999999999
 10
60.78982
 20
68.199
 10
60.78982
 20
66.7512
 42
0.9999999999999999
  0
LWPOLYLINE
  5
3B9
100
AcDbEntity
  8
0
  6
ByLayer
 62
  256
370
   -1
100
AcDbPolyline
 90
    4
 70
    1
 43
0
 10
60.59424
 20
66.7512
 10
60.59424
 20
68.199
 42
0.9999999999999999
 10
60.28944
 20
68.199
 10
60.28944
 20
66.7512
 42
0.9999999999999999
  0
LWPOLYLINE
  5
3BA
100
AcDbEntity
  8
0
  6
ByLayer
 62
  256
370
   -1
100
AcDbPolyline
 90
    4
 70
    1
 43
0
 10
60.09386
 20
66.7512
 10
60.09386
 20
68.199
 42
0.9999999999999999
 10
59.78906
 20
68.199
 10
59.78906
 20
66.7512
 42
0.9999999999999999
  0
LWPOLYLINE
  5
3BB
100
AcDbEntity
  8
0
  6
ByLayer
 62
  256
370
   -1
100
AcDbPolyline
 90
    4
 70
    1
 43
0
 10
57.5945
 20
66.7512
 10
57.5945
 20
68.199
 42
0.9999999999999999
 10
57.2897
 20
68.199
 10
57.2897
 20
66.7512
 42
0.9999999999999999
  0
LWPOLYLINE
  5
3BC
100
AcDbEntity
  8
0
  6
ByLayer
 62
  256
370
   -1
100
AcDbPolyline
 90
    4
 70
    1
 43
0
 10
57.09412
 20
66.7512
 10
57.09412
 20
68.199
 42
0.9999999999999999
 10
56.78932
 20
68.199
 10
56.78932
 20
66.7512
 42
0.9999999999999999
  0
LWPOLYLINE
  5
3BD
100
AcDbEntity
  8
0
  6
ByLayer
 62
  256
370
   -1
100
AcDbPolyline
 90
    4
 70
    1
 43
0
 10
56.59374
 20
66.7512
 10
56.59374
 20
68.199
 42
0.9999999999999999
 10
56.28894
 20
68.199
 10
56.28894
 20
66.7512
 42
0.9999999999999999
  0
LWPOLYLINE
  5
3BE
100
AcDbEntity
  8
0
  6
ByLayer
 62
  256
370
   -1
100
AcDbPolyline
 90
    4
 70
    1
 43
0
 10
56.09336
 20
66.7512
 10
56.09336
 20
68.199
 42
0.9999999999999999
 10
55.78856
 20
68.199
 10
55.78856
 20
66.7512
 42
0.9999999999999999
  0
LWPOLYLINE
  5
3BF
100
AcDbEntity
  8
0
  6
ByLayer
 62
  256
370
   -1
100
AcDbPolyline
 90
    4
 70
    1
 43
0
 10
55.59552
 20
66.7512
 10
55.59552
 20
68.199
 42
0.9999999999999999
 10
55.29072
 20
68.199
 10
55.29072
 20
66.7512
 42
0.9999999999999999
  0
LWPOLYLINE
  5
3C0
100
AcDbEntity
  8
0
  6
ByLayer
 62
  256
370
   -1
100
AcDbPolyline
 90
    4
 70
    1
 43
0
 10
55.09514
 20
66.7512
 10
55.09514
 20
68.199
 42
0.9999999999999999
 10
54.79034
 20
68.199
 10
54.79034
 20
66.7512
 42
0.9999999999999999
  0
LWPOLYLINE
  5
3C1
100
AcDbEntity
  8
0
  6
ByLayer
 62
  256
370
   -1
100
AcDbPolyline
 90
    4
 70
    1
 43
0
 10
54.59476
 20
66.7512
 10
54.59476
 20
68.199
 42
0.9999999999999999
 10
54.28996
 20
68.199
 10
54.28996
 20
66.7512
 42
0.9999999999999999
  0
LWPOLYLINE
  5
3C2
100
AcDbEntity
  8
0
  6
ByLayer
 62
  256
370
   -1
100
AcDbPolyline
 90
    4
 70
    1
 43
0
 10
54.09438
 20
66.7512
 10
54.09438
 20
68.199
 42
0.9999999999999999
 10
53.78958
 20
68.199
 10
53.78958
 20
66.7512
 42
0.9999999999999999
  0
LWPOLYLINE
  5
3C3
100
AcDbEntity
  8
0
  6
ByLayer
 62
  256
370
   -1
100
AcDbPolyline
 90
    4
 70
    1
 43
0
 10
53.594
 20
66.7512
 10
53.594
 20
68.199
 42
0.9999999999999999
 10
53.2892
 20
68.199
 10
53.2892
 20
66.7512
 42
0.9999999999999999
  0
LWPOLYLINE
  5
3C4
100
AcDbEntity
  8
0
  6
ByLayer
 62
  256
370
   -1
100
AcDbPolyline
 90
    4
 70
    1
 43
0
 10
53.09362
 20
66.7512
 10
53.09362
 20
68.199
 42
0.9999999999999999
 10
52.78882
 20
68.199
 10
52.78882
 20
66.7512
 42
0.9999999999999999
  0
LWPOLYLINE
  5
3C5
100
AcDbEntity
  8
0
  6
ByLayer
 62
  256
370
   -1
100
AcDbPolyline
 90
    4
 70
    1
 43
0
 10
52.59324
 20
66.7512
 10
52.59324
 20
68.199
 42
0.9999999999999999
 10
52.28844
 20
68.199
 10
52.28844
 20
66.7512
 42
0.9999999999999999
  0
LWPOLYLINE
  5
3C6
100
AcDbEntity
  8
0
  6
ByLayer
 62
  256
370
   -1
100
AcDbPolyline
 90
    4
 70
    1
 43
0
 10
52.0954
 20
66.7512
 10
52.0954
 20
68.199
 42
0.9999999999999999
 10
51.7906
 20
68.199
 10
51.7906
 20
66.7512
 42
0.9999999999999999
  0
LWPOLYLINE
  5
3C7
100
AcDbEntity
  8
0
  6
ByLayer
 62
  256
370
   -1
100
AcDbPolyline
 90
    4
 70
    1
 43
0
 10
51.59502
 20
66.7512
 10
51.59502
 20
68.199
 42
0.9999999999999999
 10
51.29022
 20
68.199
 10
51.29022
 20
66.7512
 42
0.9999999999999999
  0
LWPOLYLINE
  5
3C8
100
AcDbEntity
  8
0
  6
ByLayer
 62
  256
370
   -1
100
AcDbPolyline
 90
    4
 70
    1
 43
0
 10
51.09464
 20
66.7512
 10
51.09464
 20
68.199
 42
0.9999999999999999
 10
50.78984
 20
68.199
 10
50.78984
 20
66.7512
 42
0.9999999999999999
  0
LWPOLYLINE
  5
3C9
100
AcDbEntity
  8
0
  6
ByLayer
 62
  256
370
   -1
100
AcDbPolyline
 90
    4
 70
    1
 43
0
 10
50.59426
 20
66.7512
 10
50.59426
 20
68.199
 42
0.9999999999999999
 10
50.28946
 20
68.199
 10
50.28946
 20
66.7512
 42
0.9999999999999999
  0
LWPOLYLINE
  5
3CA
100
AcDbEntity
  8
0
  6
ByLayer
 62
  256
370
   -1
100
AcDbPolyline
 90
    4
 70
    1
 43
0
 10
50.09388
 20
66.7512
 10
50.09388
 20
68.199
 42
0.9999999999999999
 10
49.78908
 20
68.199
 10
49.78908
 20
66.7512
 42
0.9999999999999999
  0
LWPOLYLINE
  5
3CB
100
AcDbEntity
  8
0
  6
ByLayer
 62
  256
370
   -1
100
AcDbPolyline
 90
    4
 70
    1
 43
0
 10
49.5935
 20
66.7512
 10
49.5935
 20
68.199
 42
0.9999999999999999
 10
49.2887
 20
68.199
 10
49.2887
 20
66.7512
 42
0.9999999999999999
  0
LWPOLYLINE
  5
3CC
100
AcDbEntity
  8
0
  6
ByLayer
 62
  256
370
   -1
100
AcDbPolyline
 90
    4
 70
    1
 43
0
 10
49.09566
 20
66.7512
 10
49.09566
 20
68.199
 42
0.9999999999999999
 10
48.79086
 20
68.199
 10
48.79086
 20
66.7512
 42
0.9999999999999999
  0
LWPOLYLINE
  5
3CD
100
AcDbEntity
  8
0
  6
ByLayer
 62
  256
370
   -1
100
AcDbPolyline
 90
    4
 70
    1
 43
0
 10
48.59528
 20
66.7512
 10
48.59528
 20
68.199
 42
0.9999999999999999
 10
48.29048
 20
68.199
 10
48.29048
 20
66.7512
 42
0.9999999999999999
  0
LWPOLYLINE
  5
3CE
100
AcDbEntity
  8
0
  6
ByLayer
 62
  256
370
   -1
100
AcDbPolyline
 90
    4
 70
    1
 43
0
 10
48.0949
 20
66.7512
 10
48.0949
 20
68.199
 42
0.9999999999999999
 10
47.7901
 20
68.199
 10
47.7901
 20
66.7512
 42
0.9999999999999999
  0
LWPOLYLINE
  5
3CF
100
AcDbEntity
  8
0
  6
ByLayer
 62
  256
370
   -1
100
AcDbPolyline
 90
    4
 70
    1
 43
0
 10
47.59452
 20
66.7512
 10
47.59452
 20
68.199
 42
0.9999999999999999
 10
47.28972
 20
68.199
 10
47.28972
 20
66.7512
 42
0.9999999999999999
  0
LWPOLYLINE
  5
3D0
100
AcDbEntity
  8
0
  6
ByLayer
 62
  256
370
   -1
100
AcDbPolyline
 90
    4
 70
    1
 43
0
 10
47.09414
 20
66.7512
 10
47.09414
 20
68.199
 42
0.9999999999999999
 10
46.78934
 20
68.199
 10
46.78934
 20
66.7512
 42
0.9999999999999999
  0
LWPOLYLINE
  5
3D1
100
AcDbEntity
  8
0
  6
ByLayer
 62
  256
370
   -1
100
AcDbPolyline
 90
    4
 70
    1
 43
0
 10
46.59376
 20
66.7512
 10
46.59376
 20
68.199
 42
0.9999999999999999
 10
46.28896
 20
68.199
 10
46.28896
 20
66.7512
 42
0.9999999999999999
  0
LWPOLYLINE
  5
3D2
100
AcDbEntity
  8
0
  6
ByLayer
 62
  256
370
   -1
100
AcDbPolyline
 90
    4
 70
    1
 43
0
 10
46.09592
 20
66.7512
 10
46.09592
 20
68.199
 42
0.9999999999999999
 10
45.79112
 20
68.199
 10
45.79112
 20
66.7512
 42
0.9999999999999999
  0
LWPOLYLINE
  5
3D3
100
AcDbEntity
  8
0
  6
ByLayer
 62
  256
370
   -1
100
AcDbPolyline
 90
    4
 70
    1
 43
0
 10
45.59554
 20
66.7512
 10
45.59554
 20
68.199
 42
0.9999999999999999
 10
45.29074
 20
68.199
 10
45.29074
 20
66.7512
 42
0.9999999999999999
  0
LWPOLYLINE
  5
3D4
100
AcDbEntity
  8
0
  6
ByLayer
 62
  256
370
   -1
100
AcDbPolyline
 90
    4
 70
    1
 43
0
 10
45.09516
 20
66.7512
 10
45.09516
 20
68.199
 42
0.9999999999999999
 10
44.79036
 20
68.199
 10
44.79036
 20
66.7512
 42
0.9999999999999999
  0
LWPOLYLINE
  5
3D5
100
AcDbEntity
  8
0
  6
ByLayer
 62
  256
370
   -1
100
AcDbPolyline
 90
    4
 70
    1
 43
0
 10
44.59478
 20
66.7512
 10
44.59478
 20
68.199
 42
0.9999999999999999
 10
44.28998
 20
68.199
 10
44.28998
 20
66.7512
 42
0.9999999999999999
  0
LWPOLYLINE
  5
3D6
100
AcDbEntity
  8
0
  6
ByLayer
 62
  256
370
   -1
100
AcDbPolyline
 90
    4
 70
    1
 43
0
 10
44.0944
 20
66.7512
 10
44.0944
 20
68.199
 42
0.9999999999999999
 10
43.7896
 20
68.199
 10
43.7896
 20
66.7512
 42
0.9999999999999999
  0
LWPOLYLINE
  5
3D7
100
AcDbEntity
  8
0
  6
ByLayer
 62
  256
370
   -1
100
AcDbPolyline
 90
    4
 70
    1
 43
0
 10
43.59402
 20
66.7512
 10
43.59402
 20
68.199
 42
0.9999999999999999
 10
43.28922
 20
68.199
 10
43.28922
 20
66.7512
 42
0.9999999999999999
  0
LWPOLYLINE
  5
3D8
100
AcDbEntity
  8
0
  6
ByLayer
 62
  256
370
   -1
100
AcDbPolyline
 90
    4
 70
    1
 43
0
 10
43.09364
 20
66.7512
 10
43.09364
 20
68.199
 42
0.9999999999999999
 10
42.78884
 20
68.199
 10
42.78884
 20
66.7512
 42
0.9999999999999999
  0
LWPOLYLINE
  5
3D9
100
AcDbEntity
  8
0
  6
ByLayer
 62
  256
370
   -1
100
AcDbPolyline
 90
    4
 70
    1
 43
0
 10
42.5958
 20
66.7512
 10
42.5958
 20
68.199
 42
0.9999999999999999
 10
42.291
 20
68.199
 10
42.291
 20
66.7512
 42
0.9999999999999999
  0
LWPOLYLINE
  5
3DA
100
AcDbEntity
  8
0
  6
ByLayer
 62
  256
370
   -1
100
AcDbPolyline
 90
    4
 70
    1
 43
0
 10
42.09542
 20
66.7512
 10
42.09542
 20
68.199
 42
0.9999999999999999
 10
41.79062
 20
68.199
 10
41.79062
 20
66.7512
 42
0.9999999999999999
  0
LWPOLYLINE
  5
3DB
100
AcDbEntity
  8
0
  6
ByLayer
 62
  256
370
   -1
100
AcDbPolyline
 90
    4
 70
    1
 43
0
 10
41.59504
 20
66.7512
 10
41.59504
 20
68.199
 42
0.9999999999999999
 10
41.29024
 20
68.199
 10
41.29024
 20
66.7512
 42
0.9999999999999999
  0
LWPOLYLINE
  5
3DC
100
AcDbEntity
  8
0
  6
ByLayer
 62
  256
370
   -1
100
AcDbPolyline
 90
    4
 70
    1
 43
0
 10
41.09466
 20
66.7512
 10
41.09466
 20
68.199
 42
0.9999999999999999
 10
40.78986
 20
68.199
 10
40.78986
 20
66.7512
 42
0.9999999999999999
  0
LWPOLYLINE
  5
3DD
100
AcDbEntity
  8
0
  6
ByLayer
 62
  256
370
   -1
100
AcDbPolyline
 90
    4
 70
    1
 43
0
 10
40.59428
 20
66.7512
 10
40.59428
 20
68.199
 42
0.9999999999999999
 10
40.28948
 20
68.199
 10
40.28948
 20
66.7512
 42
0.9999999999999999
  0
LWPOLYLINE
  5
3DE
100
AcDbEntity
  8
0
  6
ByLayer
 62
  256
370
   -1
100
AcDbPolyline
 90
    4
 70
    1
 43
0
 10
40.0939
 20
66.7512
 10
40.0939
 20
68.199
 42
0.9999999999999999
 10
39.7891
 20
68.199
 10
39.7891
 20
66.7512
 42
0.9999999999999999
  0
LWPOLYLINE
  5
3DF
100
AcDbEntity
  8
0
  6
ByLayer
 62
  256
370
   -1
100
AcDbPolyline
 90
    4
 70
    1
 43
0
 10
39.59352
 20
66.7512
 10
39.59352
 20
68.199
 42
0.9999999999999999
 10
39.28872
 20
68.199
 10
39.28872
 20
66.7512
 42
0.9999999999999999
  0
LWPOLYLINE
  5
3E0
100
AcDbEntity
  8
0
  6
ByLayer
 62
  256
370
   -1
100
AcDbPolyline
 90
    4
 70
    1
 43
0
 10
39.09568
 20
66.7512
 10
39.09568
 20
68.199
 42
0.9999999999999999
 10
38.79088
 20
68.199
 10
38.79088
 20
66.7512
 42
0.9999999999999999
  0
LWPOLYLINE
  5
3E1
100
AcDbEntity
  8
0
  6
ByLayer
 62
  256
370
   -1
100
AcDbPolyline
 90
    4
 70
    1
 43
0
 10
38.5953
 20
66.7512
 10
38.5953
 20
68.199
 42
0.9999999999999999
 10
38.2905
 20
68.199
 10
38.2905
 20
66.7512
 42
0.9999999999999999
  0
LWPOLYLINE
  5
3E2
100
AcDbEntity
  8
0
  6
ByLayer
 62
  256
370
   -1
100
AcDbPolyline
 90
    4
 70
    1
 43
0
 10
38.09492
 20
66.7512
 10
38.09492
 20
68.199
 42
0.9999999999999999
 10
37.79012
 20
68.199
 10
37.79012
 20
66.7512
 42
0.9999999999999999
  0
LWPOLYLINE
  5
3E3
100
AcDbEntity
  8
0
  6
ByLayer
 62
  256
370
   -1
100
AcDbPolyline
 90
    4
 70
    1
 43
0
 10
37.59454
 20
66.7512
 10
37.59454
 20
68.199
 42
0.9999999999999999
 10
37.28974
 20
68.199
 10
37.28974
 20
66.7512
 42
0.9999999999999999
  0
LWPOLYLINE
  5
3E4
100
AcDbEntity
  8
0
  6
ByLayer
 62
  256
370
   -1
100
AcDbPolyline
 90
    4
 70
    1
 43
0
 10
37.09416
 20
66.7512
 10
37.09416
 20
68.199
 42
0.9999999999999999
 10
36.78936
 20
68.199
 10
36.78936
 20
66.7512
 42
0.9999999999999999
  0
LWPOLYLINE
  5
3E5
100
AcDbEntity
  8
0
  6
ByLayer
 62
  256
370
   -1
100
AcDbPolyline
 90
    4
 70
    1
 43
0
 10
36.59378
 20
66.7512
 10
36.59378
 20
68.199
 42
0.9999999999999999
 10
36.28898
 20
68.199
 10
36.28898
 20
66.7512
 42
0.9999999999999999
  0
LWPOLYLINE
  5
3E6
100
AcDbEntity
  8
0
  6
ByLayer
 62
  256
370
   -1
100
AcDbPolyline
 90
    4
 70
    1
 43
0
 10
36.0934
 20
66.7512
 10
36.0934
 20
68.199
 42
0.9999999999999999
 10
35.7886
 20
68.199
 10
35.7886
 20
66.7512
 42
0.9999999999999999
  0
LWPOLYLINE
  5
3E7
100
AcDbEntity
  8
0
  6
ByLayer
 62
  256
370
   -1
100
AcDbPolyline
 90
    4
 70
    1
 43
0
 10
35.59556
 20
66.7512
 10
35.59556
 20
68.199
 42
0.9999999999999999
 10
35.29076
 20
68.199
 10
35.29076
 20
66.7512
 42
0.9999999999999999
  0
LWPOLYLINE
  5
3E8
100
AcDbEntity
  8
0
  6
ByLayer
 62
  256
370
   -1
100
AcDbPolyline
 90
    4
 70
    1
 43
0
 10
35.09518
 20
66.7512
 10
35.09518
 20
68.199
 42
0.9999999999999999
 10
34.79038
 20
68.199
 10
34.79038
 20
66.7512
 42
0.9999999999999999
  0
LWPOLYLINE
  5
3E9
100
AcDbEntity
  8
0
  6
ByLayer
 62
  256
370
   -1
100
AcDbPolyline
 90
    4
 70
    1
 43
0
 10
34.5948
 20
66.7512
 10
34.5948
 20
68.199
 42
0.9999999999999999
 10
34.29
 20
68.199
 10
34.29
 20
66.7512
 42
0.9999999999999999
  0
LWPOLYLINE
  5
3EA
100
AcDbEntity
  8
0
  6
ByLayer
 62
  256
370
   -1
100
AcDbPolyline
 90
    4
 70
    1
 43
0
 10
34.09442
 20
66.7512
 10
34.09442
 20
68.199
 42
0.9999999999999999
 10
33.78962
 20
68.199
 10
33.78962
 20
66.7512
 42
0.9999999999999999
  0
LWPOLYLINE
  5
3EB
100
AcDbEntity
  8
0
  6
ByLayer
 62
  256
370
   -1
100
AcDbPolyline
 90
    4
 70
    1
 43
0
 10
33.59404
 20
66.7512
 10
33.59404
 20
68.199
 42
0.9999999999999999
 10
33.28924
 20
68.199
 10
33.28924
 20
66.7512
 42
0.9999999999999999
  0
LWPOLYLINE
  5
3EC
100
AcDbEntity
  8
0
  6
ByLayer
 62
  256
370
   -1
100
AcDbPolyline
 90
    4
 70
    1
 43
0
 10
33.09366
 20
66.7512
 10
33.09366
 20
68.199
 42
0.9999999999999999
 10
32.78886
 20
68.199
 10
32.78886
 20
66.7512
 42
0.9999999999999999
  0
LWPOLYLINE
  5
3ED
100
AcDbEntity
  8
0
  6
ByLayer
 62
  256
370
   -1
100
AcDbPolyline
 90
    4
 70
    1
 43
0
 10
32.59328
 20
66.7512
 10
32.59328
 20
68.199
 42
0.9999999999999999
 10
32.28848
 20
68.199
 10
32.28848
 20
66.7512
 42
0.9999999999999999
  0
LWPOLYLINE
  5
3EE
100
AcDbEntity
  8
0
  6
ByLayer
 62
  256
370
   -1
100
AcDbPolyline
 90
    4
 70
    1
 43
0
 10
32.09544
 20
66.7512
 10
32.09544
 20
68.199
 42
0.9999999999999999
 10
31.79064
 20
68.199
 10
31.79064
 20
66.7512
 42
0.9999999999999999
  0
LWPOLYLINE
  5
3EF
100
AcDbEntity
  8
0
  6
ByLayer
 62
  256
370
   -1
100
AcDbPolyline
 90
    4
 70
    1
 43
0
 10
31.59506
 20
66.7512
 10
31.59506
 20
68.199
 42
0.9999999999999999
 10
31.29026
 20
68.199
 10
31.29026
 20
66.7512
 42
0.9999999999999999
  0
LWPOLYLINE
  5
3F0
100
AcDbEntity
  8
0
  6
ByLayer
 62
  256
370
   -1
100
AcDbPolyline
 90
    4
 70
    1
 43
0
 10
31.09468
 20
66.7512
 10
31.09468
 20
68.199
 42
0.9999999999999999
 10
30.78988
 20
68.199
 10
30.78988
 20
66.7512
 42
0.9999999999999999
  0
LWPOLYLINE
  5
3F1
100
AcDbEntity
  8
0
  6
ByLayer
 62
  256
370
   -1
100
AcDbPolyline
 90
    4
 70
    1
 43
0
 10
30.5943
 20
66.7512
 10
30.5943
 20
68.199
 42
0.9999999999999999
 10
30.2895
 20
68.199
 10
30.2895
 20
66.7512
 42
0.9999999999999999
  0
LWPOLYLINE
  5
3F2
100
AcDbEntity
  8
0
  6
ByLayer
 62
  256
370
   -1
100
AcDbPolyline
 90
    4
 70
    1
 43
0
 10
30.09392
 20
66.7512
 10
30.09392
 20
68.199
 42
0.9999999999999999
 10
29.78912
 20
68.199
 10
29.78912
 20
66.7512
 42
0.9999999999999999
  0
LWPOLYLINE
  5
3F3
100
AcDbEntity
  8
0
  6
ByLayer
 62
  256
370
   -1
100
AcDbPolyline
 90
    4
 70
    1
 43
0
 10
29.59354
 20
66.7512
 10
29.59354
 20
68.199
 42
0.9999999999999999
 10
29.28874
 20
68.199
 10
29.28874
 20
66.7512
 42
0.9999999999999999
  0
LWPOLYLINE
  5
3F4
100
AcDbEntity
  8
0
  6
ByLayer
 62
  256
370
   -1
100
AcDbPolyline
 90
    4
 70
    1
 43
0
 10
29.0957
 20
66.7512
 10
29.0957
 20
68.199
 42
0.9999999999999999
 10
28.7909
 20
68.199
 10
28.7909
 20
66.7512
 42
0.9999999999999999
  0
LWPOLYLINE
  5
3F5
100
AcDbEntity
  8
0
  6
ByLayer
 62
  256
370
   -1
100
AcDbPolyline
 90
    4
 70
    1
 43
0
 10
28.59532
 20
66.7512
 10
28.59532
 20
68.199
 42
0.9999999999999999
 10
28.29052
 20
68.199
 10
28.29052
 20
66.7512
 42
0.9999999999999999
  0
LWPOLYLINE
  5
3F6
100
AcDbEntity
  8
0
  6
ByLayer
 62
  256
370
   -1
100
AcDbPolyline
 90
    4
 70
    1
 43
0
 10
28.09494
 20
66.7512
 10
28.09494
 20
68.199
 42
0.9999999999999999
 10
27.79014
 20
68.199
 10
27.79014
 20
66.7512
 42
0.9999999999999999
  0
LWPOLYLINE
  5
3F7
100
AcDbEntity
  8
0
  6
ByLayer
 62
  256
370
   -1
100
AcDbPolyline
 90
    4
 70
    1
 43
0
 10
27.59456
 20
66.7512
 10
27.59456
 20
68.199
 42
0.9999999999999999
 10
27.28976
 20
68.199
 10
27.28976
 20
66.7512
 42
0.9999999999999999
  0
LWPOLYLINE
  5
3F8
100
AcDbEntity
  8
0
  6
ByLayer
 62
  256
370
   -1
100
AcDbPolyline
 90
    4
 70
    1
 43
0
 10
27.09418
 20
66.7512
 10
27.09418
 20
68.199
 42
0.9999999999999999
 10
26.78938
 20
68.199
 10
26.78938
 20
66.7512
 42
0.9999999999999999
  0
LWPOLYLINE
  5
3F9
100
AcDbEntity
  8
0
  6
ByLayer
 62
  256
370
   -1
100
AcDbPolyline
 90
    4
 70
    1
 43
0
 10
26.5938
 20
66.7512
 10
26.5938
 20
68.199
 42
0.9999999999999999
 10
26.289
 20
68.199
 10
26.289
 20
66.7512
 42
0.9999999999999999
  0
LWPOLYLINE
  5
3FA
100
AcDbEntity
  8
0
  6
ByLayer
 62
  256
370
   -1
100
AcDbPolyline
 90
    4
 70
    1
 43
0
 10
26.09596
 20
66.7512
 10
26.09596
 20
68.199
 42
0.9999999999999999
 10
25.79116
 20
68.199
 10
25.79116
 20
66.7512
 42
0.9999999999999999
  0
LWPOLYLINE
  5
3FB
100
AcDbEntity
  8
0
  6
ByLayer
 62
  256
370
   -1
100
AcDbPolyline
 90
    4
 70
    1
 43
0
 10
25.59558
 20
66.7512
 10
25.59558
 20
68.199
 42
0.9999999999999999
 10
25.29078
 20
68.199
 10
25.29078
 20
66.7512
 42
0.9999999999999999
  0
LWPOLYLINE
  5
3FC
100
AcDbEntity
  8
0
  6
ByLayer
 62
  256
370
   -1
100
AcDbPolyline
 90
    4
 70
    1
 43
0
 10
25.0952
 20
66.7512
 10
25.0952
 20
68.199
 42
0.9999999999999999
 10
24.7904
 20
68.199
 10
24.7904
 20
66.7512
 42
0.9999999999999999
  0
LWPOLYLINE
  5
3FD
100
AcDbEntity
  8
0
  6
ByLayer
 62
  256
370
   -1
100
AcDbPolyline
 90
    4
 70
    1
 43
0
 10
24.59482
 20
66.7512
 10
24.59482
 20
68.199
 42
0.9999999999999999
 10
24.29002
 20
68.199
 10
24.29002
 20
66.7512
 42
0.9999999999999999
  0
LWPOLYLINE
  5
3FE
100
AcDbEntity
  8
0
  6
ByLayer
 62
  256
370
   -1
100
AcDbPolyline
 90
    4
 70
    1
 43
0
 10
24.09444
 20
66.7512
 10
24.09444
 20
68.199
 42
0.9999999999999999
 10
23.78964
 20
68.199
 10
23.78964
 20
66.7512
 42
0.9999999999999999
  0
LWPOLYLINE
  5
3FF
100
AcDbEntity
  8
0
  6
ByLayer
 62
  256
370
   -1
100
AcDbPolyline
 90
    4
 70
    1
 43
0
 10
23.59406
 20
66.7512
 10
23.59406
 20
68.199
 42
0.9999999999999999
 10
23.28926
 20
68.199
 10
23.28926
 20
66.7512
 42
0.9999999999999999
  0
LWPOLYLINE
  5
400
100
AcDbEntity
  8
0
  6
ByLayer
 62
  256
370
   -1
100
AcDbPolyline
 90
    4
 70
    1
 43
0
 10
23.09368
 20
66.7512
 10
23.09368
 20
68.199
 42
0.9999999999999999
 10
22.78888
 20
68.199
 10
22.78888
 20
66.7512
 42
0.9999999999999999
  0
LWPOLYLINE
  5
401
100
AcDbEntity
  8
0
  6
ByLayer
 62
  256
370
   -1
100
AcDbPolyline
 90
    4
 70
    1
 43
0
 10
22.59584
 20
66.7512
 10
22.59584
 20
68.199
 42
0.9999999999999999
 10
22.29104
 20
68.199
 10
22.29104
 20
66.7512
 42
0.9999999999999999
  0
LWPOLYLINE
  5
402
100
AcDbEntity
  8
0
  6
ByLayer
 62
  256
370
   -1
100
AcDbPolyline
 90
    4
 70
    1
 43
0
 10
22.09546
 20
66.7512
 10
22.09546
 20
68.199
 42
0.9999999999999999
 10
21.79066
 20
68.199
 10
21.79066
 20
66.7512
 42
0.9999999999999999
  0
LWPOLYLINE
  5
403
100
AcDbEntity
  8
0
  6
ByLayer
 62
  256
370
   -1
100
AcDbPolyline
 90
    4
 70
    1
 43
0
 10
57.34558
 20
74.95032
 10
57.34558
 20
76.39812000000001
 42
0.9999999999999999
 10
57.04078
 20
76.39812000000001
 10
57.04078
 20
74.95032
 42
0.9999999999999999
  0
LWPOLYLINE
  5
404
100
AcDbEntity
  8
0
  6
ByLayer
 62
  256
370
   -1
100
AcDbPolyline
 90
    4
 70
    1
 43
0
 10
56.8452
 20
74.95032
 10
56.8452
 20
76.39812000000001
 42
0.9999999999999999
 10
56.5404
 20
76.39812000000001
 10
56.5404
 20
74.95032
 42
0.9999999999999999
  0
LWPOLYLINE
  5
405
100
AcDbEntity
  8
0
  6
ByLayer
 62
  256
370
   -1
100
AcDbPolyline
 90
    4
 70
    1
 43
0
 10
56.34482
 20
74.95032
 10
56.34482
 20
76.39812000000001
 42
0.9999999999999999
 10
56.04002
 20
76.39812000000001
 10
56.04002
 20
74.95032
 42
0.9999999999999999
  0
LWPOLYLINE
  5
406
100
AcDbEntity
  8
0
  6
ByLayer
 62
  256
370
   -1
100
AcDbPolyline
 90
    4
 70
    1
 43
0
 10
55.84444
 20
74.95032
 10
55.84444
 20
76.39812000000001
 42
0.9999999999999999
 10
55.53964
 20
76.39812000000001
 10
55.53964
 20
74.95032
 42
0.9999999999999999
  0
LWPOLYLINE
  5
407
100
AcDbEntity
  8
0
  6
ByLayer
 62
  256
370
   -1
100
AcDbPolyline
 90
    4
 70
    1
 43
0
 10
55.34406
 20
74.95032
 10
55.34406
 20
76.39812000000001
 42
0.9999999999999999
 10
55.03926
 20
76.39812000000001
 10
55.03926
 20
74.95032
 42
0.9999999999999999
  0
LWPOLYLINE
  5
408
100
AcDbEntity
  8
0
  6
ByLayer
 62
  256
370
   -1
100
AcDbPolyline
 90
    4
 70
    1
 43
0
 10
54.84368
 20
74.95032
 10
54.84368
 20
76.39812000000001
 42
0.9999999999999999
 10
54.53888
 20
76.39812000000001
 10
54.53888
 20
74.95032
 42
0.9999999999999999
  0
LWPOLYLINE
  5
409
100
AcDbEntity
  8
0
  6
ByLayer
 62
  256
370
   -1
100
AcDbPolyline
 90
    4
 70
    1
 43
0
 10
54.34584
 20
74.95032
 10
54.34584
 20
76.39812000000001
 42
0.9999999999999999
 10
54.04104
 20
76.39812000000001
 10
54.04104
 20
74.95032
 42
0.9999999999999999
  0
LWPOLYLINE
  5
40A
100
AcDbEntity
  8
0
  6
ByLayer
 62
  256
370
   -1
100
AcDbPolyline
 90
    4
 70
    1
 43
0
 10
53.84546
 20
74.95032
 10
53.84546
 20
76.39812000000001
 42
0.9999999999999999
 10
53.54066
 20
76.39812000000001
 10
53.54066
 20
74.95032
 42
0.9999999999999999
  0
LWPOLYLINE
  5
40B
100
AcDbEntity
  8
0
  6
ByLayer
 62
  256
370
   -1
100
AcDbPolyline
 90
    4
 70
    1
 43
0
 10
53.34508
 20
74.95032
 10
53.34508
 20
76.39812000000001
 42
0.9999999999999999
 10
53.04028
 20
76.39812000000001
 10
53.04028
 20
74.95032
 42
0.9999999999999999
  0
LWPOLYLINE
  5
40C
100
AcDbEntity
  8
0
  6
ByLayer
 62
  256
370
   -1
100
AcDbPolyline
 90
    4
 70
    1
 43
0
 10
52.8447
 20
74.95032
 10
52.8447
 20
76.39812000000001
 42
0.9999999999999999
 10
52.5399
 20
76.39812000000001
 10
52.5399
 20
74.95032
 42
0.9999999999999999
  0
LWPOLYLINE
  5
40D
100
AcDbEntity
  8
0
  6
ByLayer
 62
  256
370
   -1
100
AcDbPolyline
 90
    4
 70
    1
 43
0
 10
52.34432
 20
74.95032
 10
52.34432
 20
76.39812000000001
 42
0.9999999999999999
 10
52.03952
 20
76.39812000000001
 10
52.03952
 20
74.95032
 42
0.9999999999999999
  0
LWPOLYLINE
  5
40E
100
AcDbEntity
  8
0
  6
ByLayer
 62
  256
370
   -1
100
AcDbPolyline
 90
    4
 70
    1
 43
0
 10
51.84394
 20
74.95032
 10
51.84394
 20
76.39812000000001
 42
0.9999999999999999
 10
51.53914
 20
76.39812000000001
 10
51.53914
 20
74.95032
 42
0.9999999999999999
  0
LWPOLYLINE
  5
40F
100
AcDbEntity
  8
0
  6
ByLayer
 62
  256
370
   -1
100
AcDbPolyline
 90
    4
 70
    1
 43
0
 10
51.34356
 20
74.95032
 10
51.34356
 20
76.39812000000001
 42
0.9999999999999999
 10
51.03876
 20
76.39812000000001
 10
51.03876
 20
74.95032
 42
0.9999999999999999
  0
LWPOLYLINE
  5
410
100
AcDbEntity
  8
0
  6
ByLayer
 62
  256
370
   -1
100
AcDbPolyline
 90
    4
 70
    1
 43
0
 10
50.84572
 20
74.95032
 10
50.84572
 20
76.39812000000001
 42
0.9999999999999999
 10
50.54092
 20
76.39812000000001
 10
50.54092
 20
74.95032
 42
0.9999999999999999
  0
LWPOLYLINE
  5
411
100
AcDbEntity
  8
0
  6
ByLayer
 62
  256
370
   -1
100
AcDbPolyline
 90
    4
 70
    1
 43
0
 10
50.34534
 20
74.95032
 10
50.34534
 20
76.39812000000001
 42
0.9999999999999999
 10
50.04054
 20
76.39812000000001
 10
50.04054
 20
74.95032
 42
0.9999999999999999
  0
LWPOLYLINE
  5
412
100
AcDbEntity
  8
0
  6
ByLayer
 62
  256
370
   -1
100
AcDbPolyline
 90
    4
 70
    1
 43
0
 10
49.84496
 20
74.95032
 10
49.84496
 20
76.39812000000001
 42
0.9999999999999999
 10
49.54016
 20
76.39812000000001
 10
49.54016
 20
74.95032
 42
0.9999999999999999
  0
LWPOLYLINE
  5
413
100
AcDbEntity
  8
0
  6
ByLayer
 62
  256
370
   -1
100
AcDbPolyline
 90
    4
 70
    1
 43
0
 10
49.34458
 20
74.95032
 10
49.34458
 20
76.39812000000001
 42
0.9999999999999999
 10
49.03978
 20
76.39812000000001
 10
49.03978
 20
74.95032
 42
0.9999999999999999
  0
LWPOLYLINE
  5
414
100
AcDbEntity
  8
0
  6
ByLayer
 62
  256
370
   -1
100
AcDbPolyline
 90
    4
 70
    1
 43
0
 10
48.8442
 20
74.95032
 10
48.8442
 20
76.39812000000001
 42
0.9999999999999999
 10
48.5394
 20
76.39812000000001
 10
48.5394
 20
74.95032
 42
0.9999999999999999
  0
LWPOLYLINE
  5
415
100
AcDbEntity
  8
0
  6
ByLayer
 62
  256
370
   -1
100
AcDbPolyline
 90
    4
 70
    1
 43
0
 10
48.34382
 20
74.95032
 10
48.34382
 20
76.39812000000001
 42
0.9999999999999999
 10
48.03902
 20
76.39812000000001
 10
48.03902
 20
74.95032
 42
0.9999999999999999
  0
LWPOLYLINE
  5
416
100
AcDbEntity
  8
0
  6
ByLayer
 62
  256
370
   -1
100
AcDbPolyline
 90
    4
 70
    1
 43
0
 10
47.84344
 20
74.95032
 10
47.84344
 20
76.39812000000001
 42
0.9999999999999999
 10
47.53864
 20
76.39812000000001
 10
47.53864
 20
74.95032
 42
0.9999999999999999
  0
LWPOLYLINE
  5
417
100
AcDbEntity
  8
0
  6
ByLayer
 62
  256
370
   -1
100
AcDbPolyline
 90
    4
 70
    1
 43
0
 10
47.3456
 20
74.95032
 10
47.3456
 20
76.39812000000001
 42
0.9999999999999999
 10
47.0408
 20
76.39812000000001
 10
47.0408
 20
74.95032
 42
0.9999999999999999
  0
LWPOLYLINE
  5
418
100
AcDbEntity
  8
0
  6
ByLayer
 62
  256
370
   -1
100
AcDbPolyline
 90
    4
 70
    1
 43
0
 10
46.84522
 20
74.95032
 10
46.84522
 20
76.39812000000001
 42
0.9999999999999999
 10
46.54042
 20
76.39812000000001
 10
46.54042
 20
74.95032
 42
0.9999999999999999
  0
LWPOLYLINE
  5
419
100
AcDbEntity
  8
0
  6
ByLayer
 62
  256
370
   -1
100
AcDbPolyline
 90
    4
 70
    1
 43
0
 10
46.34484
 20
74.95032
 10
46.34484
 20
76.39812000000001
 42
0.9999999999999999
 10
46.04004
 20
76.39812000000001
 10
46.04004
 20
74.95032
 42
0.9999999999999999
  0
LWPOLYLINE
  5
41A
100
AcDbEntity
  8
0
  6
ByLayer
 62
  256
370
   -1
100
AcDbPolyline
 90
    4
 70
    1
 43
0
 10
45.84446
 20
74.95032
 10
45.84446
 20
76.39812000000001
 42
0.9999999999999999
 10
45.53966
 20
76.39812000000001
 10
45.53966
 20
74.95032
 42
0.9999999999999999
  0
LWPOLYLINE
  5
41B
100
AcDbEntity
  8
0
  6
ByLayer
 62
  256
370
   -1
100
AcDbPolyline
 90
    4
 70
    1
 43
0
 10
45.34408
 20
74.95032
 10
45.34408
 20
76.39812000000001
 42
0.9999999999999999
 10
45.03928
 20
76.39812000000001
 10
45.03928
 20
74.95032
 42
0.9999999999999999
  0
LWPOLYLINE
  5
41C
100
AcDbEntity
  8
0
  6
ByLayer
 62
  256
370
   -1
100
AcDbPolyline
 90
    4
 70
    1
 43
0
 10
44.8437
 20
74.95032
 10
44.8437
 20
76.39812000000001
 42
0.9999999999999999
 10
44.5389
 20
76.39812000000001
 10
44.5389
 20
74.95032
 42
0.9999999999999999
  0
LWPOLYLINE
  5
41D
100
AcDbEntity
  8
0
  6
ByLayer
 62
  256
370
   -1
100
AcDbPolyline
 90
    4
 70
    1
 43
0
 10
44.34332
 20
74.95032
 10
44.34332
 20
76.39812000000001
 42
0.9999999999999999
 10
44.03852
 20
76.39812000000001
 10
44.03852
 20
74.95032
 42
0.9999999999999999
  0
LWPOLYLINE
  5
41E
100
AcDbEntity
  8
0
  6
ByLayer
 62
  256
370
   -1
100
AcDbPolyline
 90
    4
 70
    1
 43
0
 10
43.84548
 20
74.95032
 10
43.84548
 20
76.39812000000001
 42
0.9999999999999999
 10
43.54068
 20
76.39812000000001
 10
43.54068
 20
74.95032
 42
0.9999999999999999
  0
LWPOLYLINE
  5
41F
100
AcDbEntity
  8
0
  6
ByLayer
 62
  256
370
   -1
100
AcDbPolyline
 90
    4
 70
    1
 43
0
 10
43.3451
 20
74.95032
 10
43.3451
 20
76.39812000000001
 42
0.9999999999999999
 10
43.0403
 20
76.39812000000001
 10
43.0403
 20
74.95032
 42
0.9999999999999999
  0
LWPOLYLINE
  5
420
100
AcDbEntity
  8
0
  6
ByLayer
 62
  256
370
   -1
100
AcDbPolyline
 90
    4
 70
    1
 43
0
 10
42.84472
 20
74.95032
 10
42.84472
 20
76.39812000000001
 42
0.9999999999999999
 10
42.53992
 20
76.39812000000001
 10
42.53992
 20
74.95032
 42
0.9999999999999999
  0
LWPOLYLINE
  5
421
100
AcDbEntity
  8
0
  6
ByLayer
 62
  256
370
   -1
100
AcDbPolyline
 90
    4
 70
    1
 43
0
 10
42.34434
 20
74.95032
 10
42.34434
 20
76.39812000000001
 42
0.9999999999999999
 10
42.03954
 20
76.39812000000001
 10
42.03954
 20
74.95032
 42
0.9999999999999999
  0
LWPOLYLINE
  5
422
100
AcDbEntity
  8
0
  6
ByLayer
 62
  256
370
   -1
100
AcDbPolyline
 90
    4
 70
    1
 43
0
 10
41.84396
 20
74.95032
 10
41.84396
 20
76.39812000000001
 42
0.9999999999999999
 10
41.53916
 20
76.39812000000001
 10
41.53916
 20
74.95032
 42
0.9999999999999999
  0
LWPOLYLINE
  5
423
100
AcDbEntity
  8
0
  6
ByLayer
 62
  256
370
   -1
100
AcDbPolyline
 90
    4
 70
    1
 43
0
 10
41.34358
 20
74.95032
 10
41.34358
 20
76.39812000000001
 42
0.9999999999999999
 10
41.03878
 20
76.39812000000001
 10
41.03878
 20
74.95032
 42
0.9999999999999999
  0
LWPOLYLINE
  5
424
100
AcDbEntity
  8
0
  6
ByLayer
 62
  256
370
   -1
100
AcDbPolyline
 90
    4
 70
    1
 43
0
 10
40.84574
 20
74.95032
 10
40.84574
 20
76.39812000000001
 42
0.9999999999999999
 10
40.54094
 20
76.39812000000001
 10
40.54094
 20
74.95032
 42
0.9999999999999999
  0
LWPOLYLINE
  5
425
100
AcDbEntity
  8
0
  6
ByLayer
 62
  256
370
   -1
100
AcDbPolyline
 90
    4
 70
    1
 43
0
 10
40.34536
 20
74.95032
 10
40.34536
 20
76.39812000000001
 42
0.9999999999999999
 10
40.04056
 20
76.39812000000001
 10
40.04056
 20
74.95032
 42
0.9999999999999999
  0
LWPOLYLINE
  5
426
100
AcDbEntity
  8
0
  6
ByLayer
 62
  256
370
   -1
100
AcDbPolyline
 90
    4
 70
    1
 43
0
 10
39.84498
 20
74.95032
 10
39.84498
 20
76.39812000000001
 42
0.9999999999999999
 10
39.54018
 20
76.39812000000001
 10
39.54018
 20
74.95032
 42
0.9999999999999999
  0
LWPOLYLINE
  5
427
100
AcDbEntity
  8
0
  6
ByLayer
 62
  256
370
   -1
100
AcDbPolyline
 90
    4
 70
    1
 43
0
 10
39.3446
 20
74.95032
 10
39.3446
 20
76.39812000000001
 42
0.9999999999999999
 10
39.0398
 20
76.39812000000001
 10
39.0398
 20
74.95032
 42
0.9999999999999999
  0
LWPOLYLINE
  5
428
100
AcDbEntity
  8
0
  6
ByLayer
 62
  256
370
   -1
100
AcDbPolyline
 90
    4
 70
    1
 43
0
 10
38.84422
 20
74.95032
 10
38.84422
 20
76.39812000000001
 42
0.9999999999999999
 10
38.53942
 20
76.39812000000001
 10
38.53942
 20
74.95032
 42
0.9999999999999999
  0
LWPOLYLINE
  5
429
100
AcDbEntity
  8
0
  6
ByLayer
 62
  256
370
   -1
100
AcDbPolyline
 90
    4
 70
    1
 43
0
 10
38.34384
 20
74.95032
 10
38.34384
 20
76.39812000000001
 42
0.9999999999999999
 10
38.03904
 20
76.39812000000001
 10
38.03904
 20
74.95032
 42
0.9999999999999999
  0
LWPOLYLINE
  5
42A
100
AcDbEntity
  8
0
  6
ByLayer
 62
  256
370
   -1
100
AcDbPolyline
 90
    4
 70
    1
 43
0
 10
37.84346
 20
74.95032
 10
37.84346
 20
76.39812000000001
 42
0.9999999999999999
 10
37.53866
 20
76.39812000000001
 10
37.53866
 20
74.95032
 42
0.9999999999999999
  0
LWPOLYLINE
  5
42B
100
AcDbEntity
  8
0
  6
ByLayer
 62
  256
370
   -1
100
AcDbPolyline
 90
    4
 70
    1
 43
0
 10
37.34562
 20
74.95032
 10
37.34562
 20
76.39812000000001
 42
0.9999999999999999
 10
37.04082
 20
76.39812000000001
 10
37.04082
 20
74.95032
 42
0.9999999999999999
  0
LWPOLYLINE
  5
42C
100
AcDbEntity
  8
0
  6
ByLayer
 62
  256
370
   -1
100
AcDbPolyline
 90
    4
 70
    1
 43
0
 10
36.84524
 20
74.95032
 10
36.84524
 20
76.39812000000001
 42
0.9999999999999999
 10
36.54044
 20
76.39812000000001
 10
36.54044
 20
74.95032
 42
0.9999999999999999
  0
LWPOLYLINE
  5
42D
100
AcDbEntity
  8
0
  6
ByLayer
 62
  256
370
   -1
100
AcDbPolyline
 90
    4
 70
    1
 43
0
 10
36.34486
 20
74.95032
 10
36.34486
 20
76.39812000000001
 42
0.9999999999999999
 10
36.04006
 20
76.39812000000001
 10
36.04006
 20
74.95032
 42
0.9999999999999999
  0
LWPOLYLINE
  5
42E
100
AcDbEntity
  8
0
  6
ByLayer
 62
  256
370
   -1
100
AcDbPolyline
 90
    4
 70
    1
 43
0
 10
35.84448
 20
74.95032
 10
35.84448
 20
76.39812000000001
 42
0.9999999999999999
 10
35.53968
 20
76.39812000000001
 10
35.53968
 20
74.95032
 42
0.9999999999999999
  0
LWPOLYLINE
  5
42F
100
AcDbEntity
  8
0
  6
ByLayer
 62
  256
370
   -1
100
AcDbPolyline
 90
    4
 70
    1
 43
0
 10
35.3441
 20
74.95032
 10
35.3441
 20
76.39812000000001
 42
0.9999999999999999
 10
35.0393
 20
76.39812000000001
 10
35.0393
 20
74.95032
 42
0.9999999999999999
  0
LWPOLYLINE
  5
430
100
AcDbEntity
  8
0
  6
ByLayer
 62
  256
370
   -1
100
AcDbPolyline
 90
    4
 70
    1
 43
0
 10
34.84372
 20
74.95032
 10
34.84372
 20
76.39812000000001
 42
0.9999999999999999
 10
34.53892
 20
76.39812000000001
 10
34.53892
 20
74.95032
 42
0.9999999999999999
  0
LWPOLYLINE
  5
431
100
AcDbEntity
  8
0
  6
ByLayer
 62
  256
370
   -1
100
AcDbPolyline
 90
    4
 70
    1
 43
0
 10
34.34588
 20
74.95032
 10
34.34588
 20
76.39812000000001
 42
0.9999999999999999
 10
34.04108
 20
76.39812000000001
 10
34.04108
 20
74.95032
 42
0.9999999999999999
  0
LWPOLYLINE
  5
432
100
AcDbEntity
  8
0
  6
ByLayer
 62
  256
370
   -1
100
AcDbPolyline
 90
    4
 70
    1
 43
0
 10
33.8455
 20
74.95032
 10
33.8455
 20
76.39812000000001
 42
0.9999999999999999
 10
33.5407
 20
76.39812000000001
 10
33.5407
 20
74.95032
 42
0.9999999999999999
  0
LWPOLYLINE
  5
433
100
AcDbEntity
  8
0
  6
ByLayer
 62
  256
370
   -1
100
AcDbPolyline
 90
    4
 70
    1
 43
0
 10
33.34512
 20
74.95032
 10
33.34512
 20
76.39812000000001
 42
0.9999999999999999
 10
33.04032
 20
76.39812000000001
 10
33.04032
 20
74.95032
 42
0.9999999999999999
  0
LWPOLYLINE
  5
434
100
AcDbEntity
  8
0
  6
ByLayer
 62
  256
370
   -1
100
AcDbPolyline
 90
    4
 70
    1
 43
0
 10
32.84474
 20
74.95032
 10
32.84474
 20
76.39812000000001
 42
0.9999999999999999
 10
32.53994
 20
76.39812000000001
 10
32.53994
 20
74.95032
 42
0.9999999999999999
  0
LWPOLYLINE
  5
435
100
AcDbEntity
  8
0
  6
ByLayer
 62
  256
370
   -1
100
AcDbPolyline
 90
    4
 70
    1
 43
0
 10
32.34436
 20
74.95032
 10
32.34436
 20
76.39812000000001
 42
0.9999999999999999
 10
32.03956
 20
76.39812000000001
 10
32.03956
 20
74.95032
 42
0.9999999999999999
  0
LWPOLYLINE
  5
436
100
AcDbEntity
  8
0
  6
ByLayer
 62
  256
370
   -1
100
AcDbPolyline
 90
    4
 70
    1
 43
0
 10
31.84398
 20
74.95032
 10
31.84398
 20
76.39812000000001
 42
0.9999999999999999
 10
31.53918
 20
76.39812000000001
 10
31.53918
 20
74.95032
 42
0.9999999999999999
  0
LWPOLYLINE
  5
437
100
AcDbEntity
  8
0
  6
ByLayer
 62
  256
370
   -1
100
AcDbPolyline
 90
    4
 70
    1
 43
0
 10
31.3436
 20
74.95032
 10
31.3436
 20
76.39812000000001
 42
0.9999999999999999
 10
31.0388
 20
76.39812000000001
 10
31.0388
 20
74.95032
 42
0.9999999999999999
  0
LWPOLYLINE
  5
438
100
AcDbEntity
  8
0
  6
ByLayer
 62
  256
370
   -1
100
AcDbPolyline
 90
    4
 70
    1
 43
0
 10
30.84576
 20
74.95032
 10
30.84576
 20
76.39812000000001
 42
0.9999999999999999
 10
30.54096
 20
76.39812000000001
 10
30.54096
 20
74.95032
 42
0.9999999999999999
  0
LWPOLYLINE
  5
439
100
AcDbEntity
  8
0
  6
ByLayer
 62
  256
370
   -1
100
AcDbPolyline
 90
    4
 70
    1
 43
0
 10
30.34538
 20
74.95032
 10
30.34538
 20
76.39812000000001
 42
0.9999999999999999
 10
30.04058
 20
76.39812000000001
 10
30.04058
 20
74.95032
 42
0.9999999999999999
  0
LWPOLYLINE
  5
43A
100
AcDbEntity
  8
0
  6
ByLayer
 62
  256
370
   -1
100
AcDbPolyline
 90
    4
 70
    1
 43
0
 10
29.845
 20
74.95032
 10
29.845
 20
76.39812000000001
 42
0.9999999999999999
 10
29.5402
 20
76.39812000000001
 10
29.5402
 20
74.95032
 42
0.9999999999999999
  0
LWPOLYLINE
  5
43B
100
AcDbEntity
  8
0
  6
ByLayer
 62
  256
370
   -1
100
AcDbPolyline
 90
    4
 70
    1
 43
0
 10
29.34462
 20
74.95032
 10
29.34462
 20
76.39812000000001
 42
0.9999999999999999
 10
29.03982
 20
76.39812000000001
 10
29.03982
 20
74.95032
 42
0.9999999999999999
  0
LWPOLYLINE
  5
43C
100
AcDbEntity
  8
0
  6
ByLayer
 62
  256
370
   -1
100
AcDbPolyline
 90
    4
 70
    1
 43
0
 10
28.84424
 20
74.95032
 10
28.84424
 20
76.39812000000001
 42
0.9999999999999999
 10
28.53944
 20
76.39812000000001
 10
28.53944
 20
74.95032
 42
0.9999999999999999
  0
LWPOLYLINE
  5
43D
100
AcDbEntity
  8
0
  6
ByLayer
 62
  256
370
   -1
100
AcDbPolyline
 90
    4
 70
    1
 43
0
 10
28.34386
 20
74.95032
 10
28.34386
 20
76.39812000000001
 42
0.9999999999999999
 10
28.03906
 20
76.39812000000001
 10
28.03906
 20
74.95032
 42
0.9999999999999999
  0
LWPOLYLINE
  5
43E
100
AcDbEntity
  8
0
  6
ByLayer
 62
  256
370
   -1
100
AcDbPolyline
 90
    4
 70
    1
 43
0
 10
27.84348
 20
74.95032
 10
27.84348
 20
76.39812000000001
 42
0.9999999999999999
 10
27.53868
 20
76.39812000000001
 10
27.53868
 20
74.95032
 42
0.9999999999999999
  0
LWPOLYLINE
  5
43F
100
AcDbEntity
  8
0
  6
ByLayer
 62
  256
370
   -1
100
AcDbPolyline
 90
    4
 70
    1
 43
0
 10
27.34564
 20
74.95032
 10
27.34564
 20
76.39812000000001
 42
0.9999999999999999
 10
27.04084
 20
76.39812000000001
 10
27.04084
 20
74.95032
 42
0.9999999999999999
  0
LWPOLYLINE
  5
440
100
AcDbEntity
  8
0
  6
ByLayer
 62
  256
370
   -1
100
AcDbPolyline
 90
    4
 70
    1
 43
0
 10
26.84526
 20
74.95032
 10
26.84526
 20
76.39812000000001
 42
0.9999999999999999
 10
26.54046
 20
76.39812000000001
 10
26.54046
 20
74.95032
 42
0.9999999999999999
  0
LWPOLYLINE
  5
441
100
AcDbEntity
  8
0
  6
ByLayer
 62
  256
370
   -1
100
AcDbPolyline
 90
    4
 70
    1
 43
0
 10
26.34488
 20
74.95032
 10
26.34488
 20
76.39812000000001
 42
0.9999999999999999
 10
26.04008
 20
76.39812000000001
 10
26.04008
 20
74.95032
 42
0.9999999999999999
  0
LWPOLYLINE
  5
442
100
AcDbEntity
  8
0
  6
ByLayer
 62
  256
370
   -1
100
AcDbPolyline
 90
    4
 70
    1
 43
0
 10
25.8445
 20
74.95032
 10
25.8445
 20
76.39812000000001
 42
0.9999999999999999
 10
25.5397
 20
76.39812000000001
 10
25.5397
 20
74.95032
 42
0.9999999999999999
  0
LWPOLYLINE
  5
443
100
AcDbEntity
  8
0
  6
ByLayer
 62
  256
370
   -1
100
AcDbPolyline
 90
    4
 70
    1
 43
0
 10
25.34412
 20
74.95032
 10
25.34412
 20
76.39812000000001
 42
0.9999999999999999
 10
25.03932
 20
76.39812000000001
 10
25.03932
 20
74.95032
 42
0.9999999999999999
  0
LWPOLYLINE
  5
444
100
AcDbEntity
  8
0
  6
ByLayer
 62
  256
370
   -1
100
AcDbPolyline
 90
    4
 70
    1
 43
0
 10
24.84374
 20
74.95032
 10
24.84374
 20
76.39812000000001
 42
0.9999999999999999
 10
24.53894
 20
76.39812000000001
 10
24.53894
 20
74.95032
 42
0.9999999999999999
  0
LWPOLYLINE
  5
445
100
AcDbEntity
  8
0
  6
ByLayer
 62
  256
370
   -1
100
AcDbPolyline
 90
    4
 70
    1
 43
0
 10
24.34336
 20
74.95032
 10
24.34336
 20
76.39812000000001
 42
0.9999999999999999
 10
24.03856
 20
76.39812000000001
 10
24.03856
 20
74.95032
 42
0.9999999999999999
  0
LWPOLYLINE
  5
446
100
AcDbEntity
  8
0
  6
ByLayer
 62
  256
370
   -1
100
AcDbPolyline
 90
    4
 70
    1
 43
0
 10
23.84552
 20
74.95032
 10
23.84552
 20
76.39812000000001
 42
0.9999999999999999
 10
23.54072
 20
76.39812000000001
 10
23.54072
 20
74.95032
 42
0.9999999999999999
  0
LWPOLYLINE
  5
447
100
AcDbEntity
  8
0
  6
ByLayer
 62
  256
370
   -1
100
AcDbPolyline
 90
    4
 70
    1
 43
0
 10
23.34514
 20
74.95032
 10
23.34514
 20
76.39812000000001
 42
0.9999999999999999
 10
23.04034
 20
76.39812000000001
 10
23.04034
 20
74.95032
 42
0.9999999999999999
  0
LWPOLYLINE
  5
448
100
AcDbEntity
  8
0
  6
ByLayer
 62
  256
370
   -1
100
AcDbPolyline
 90
    4
 70
    1
 43
0
 10
22.84476
 20
74.95032
 10
22.84476
 20
76.39812000000001
 42
0.9999999999999999
 10
22.53996
 20
76.39812000000001
 10
22.53996
 20
74.95032
 42
0.9999999999999999
  0
LWPOLYLINE
  5
449
100
AcDbEntity
  8
0
  6
ByLayer
 62
  256
370
   -1
100
AcDbPolyline
 90
    4
 70
    1
 43
0
 10
22.34438
 20
74.95032
 10
22.34438
 20
76.39812000000001
 42
0.9999999999999999
 10
22.03958
 20
76.39812000000001
 10
22.03958
 20
74.95032
 42
0.9999999999999999
  0
LWPOLYLINE
  5
44A
100
AcDbEntity
  8
0
  6
ByLayer
 62
  256
370
   -1
100
AcDbPolyline
 90
    4
 70
    1
 43
0
 10
21.844
 20
74.95032
 10
21.844
 20
76.39812000000001
 42
0.9999999999999999
 10
21.5392
 20
76.39812000000001
 10
21.5392
 20
74.95032
 42
0.9999999999999999
  0
LWPOLYLINE
  5
44B
100
AcDbEntity
  8
0
  6
ByLayer
 62
  256
370
   -1
100
AcDbPolyline
 90
    4
 70
    1
 43
0
 10
19.51482
 20
61.8871
 10
19.51482
 20
57.2643
 10
23.02002
 20
57.2643
 10
23.02002
 20
61.8871
  0
LWPOLYLINE
  5
44C
100
AcDbEntity
  8
0
  6
ByLayer
 62
  256
370
   -1
100
AcDbPolyline
 90
    4
 70
    1
 43
0
 10
87.11438
 20
61.8871
 10
87.11438
 20
57.2643
 10
90.61958
 20
57.2643
 10
90.61958
 20
61.8871
  0
CIRCLE
  5
44D
100
AcDbEntity
  8
0
  6
ByLayer
 62
  256
370
   -1
100
AcDbCircle
 10
20.66798
 20
71.57465999999999
 40
0.8001
  0
CIRCLE
  5
44E
100
AcDbEntity
  8
0
  6
ByLayer
 62
  256
370
   -1
100
AcDbCircle
 10
89.46642
 20
71.57465999999999
 40
0.5588
  0
LWPOLYLINE
  5
44F
100
AcDbEntity
  8
PACKAGE_GEOMET_SILKSCREEN_BOTT
  6
ByLayer
 62
  256
370
   -1
100
AcDbPolyline
 90
    2
 70
    0
 43
0
 10
17.37868
 20
56.3118
 10
17.51584
 20
56.9341
  0
LWPOLYLINE
  5
450
100
AcDbEntity
  8
PACKAGE_GEOMET_SILKSCREEN_BOTT
  6
ByLayer
 62
  256
370
   -1
100
AcDbPolyline
 90
    2
 70
    0
 43
0
 10
17.272
 20
55.83428
 10
17.32534
 20
56.07304
  0
LWPOLYLINE
  5
451
100
AcDbEntity
  8
PACKAGE_GEOMET_SILKSCREEN_BOTT
  6
ByLayer
 62
  256
370
   -1
100
AcDbPolyline
 90
    2
 70
    0
 43
0
 10
17.15516
 20
55.30596
 10
17.2085
 20
55.54218
  0
LWPOLYLINE
  5
452
100
AcDbEntity
  8
PACKAGE_GEOMET_SILKSCREEN_BOTT
  6
ByLayer
 62
  256
370
   -1
100
AcDbPolyline
 90
    2
 70
    0
 43
0
 10
17.04848
 20
54.82844
 10
17.10182
 20
55.0672
  0
LWPOLYLINE
  5
453
100
AcDbEntity
  8
PACKAGE_GEOMET_SILKSCREEN_BOTT
  6
ByLayer
 62
  256
370
   -1
100
AcDbPolyline
 90
    2
 70
    0
 43
0
 10
16.9418
 20
54.35346
 10
16.99514
 20
54.58968
  0
LWPOLYLINE
  5
454
100
AcDbEntity
  8
PACKAGE_GEOMET_SILKSCREEN_BOTT
  6
ByLayer
 62
  256
370
   -1
100
AcDbPolyline
 90
    2
 70
    0
 43
0
 10
92.67189999999999
 20
56.59628
 10
92.59824
 20
56.9341
  0
LWPOLYLINE
  5
455
100
AcDbEntity
  8
PACKAGE_GEOMET_SILKSCREEN_BOTT
  6
ByLayer
 62
  256
370
   -1
100
AcDbPolyline
 90
    2
 70
    0
 43
0
 10
92.78619999999999
 20
56.06796
 10
92.7354
 20
56.30672
  0
LWPOLYLINE
  5
456
100
AcDbEntity
  8
PACKAGE_GEOMET_SILKSCREEN_BOTT
  6
ByLayer
 62
  256
370
   -1
100
AcDbPolyline
 90
    2
 70
    0
 43
0
 10
92.89288000000001
 20
55.59044
 10
92.83954
 20
55.8292
  0
LWPOLYLINE
  5
457
100
AcDbEntity
  8
PACKAGE_GEOMET_SILKSCREEN_BOTT
  6
ByLayer
 62
  256
370
   -1
100
AcDbPolyline
 90
    2
 70
    0
 43
0
 10
93.06052
 20
54.82336
 10
92.95638
 20
55.30088
  0
LWPOLYLINE
  5
458
100
AcDbEntity
  8
PACKAGE_GEOMET_SILKSCREEN_BOTT
  6
ByLayer
 62
  256
370
   -1
100
AcDbPolyline
 90
    2
 70
    0
 43
0
 10
93.16466
 20
54.34584
 10
93.11132000000001
 20
54.5846
  0
LWPOLYLINE
  5
459
100
AcDbEntity
  8
PACKAGE_GEOMET_SILKSCREEN_BOTT
  6
ByLayer
 62
  256
370
   -1
100
AcDbPolyline
 90
    2
 70
    0
 43
0
 10
93.28149999999999
 20
53.81752
 10
93.22816
 20
54.05628
  0
LWPOLYLINE
  5
45A
100
AcDbEntity
  8
PACKAGE_GEOMET_SILKSCREEN_BOTT
  6
ByLayer
 62
  256
370
   -1
100
AcDbPolyline
 90
    2
 70
    0
 43
0
 10
93.38564
 20
53.34
 10
93.33484
 20
53.57876
  0
LWPOLYLINE
  5
45B
100
AcDbEntity
  8
PACKAGE_GEOMET_SILKSCREEN_BOTT
  6
ByLayer
 62
  256
370
   -1
100
AcDbPolyline
 90
    2
 70
    0
 43
0
 10
93.50248000000001
 20
52.81168
 10
93.44914
 20
53.0479
  0
LWPOLYLINE
  5
45C
100
AcDbEntity
  8
PACKAGE_GEOMET_SILKSCREEN_BOTT
  6
ByLayer
 62
  256
370
   -1
100
AcDbPolyline
 90
    2
 70
    0
 43
0
 10
93.60662000000001
 20
52.33416
 10
93.55328
 20
52.57038
  0
LWPOLYLINE
  5
45D
100
AcDbEntity
  8
PACKAGE_GEOMET_SILKSCREEN_BOTT
  6
ByLayer
 62
  256
370
   -1
100
AcDbPolyline
 90
    2
 70
    0
 43
0
 10
93.72346
 20
51.8033
 10
93.65996
 20
52.0954
  0
LWPOLYLINE
  5
45E
100
AcDbEntity
  8
PACKAGE_GEOMET_SILKSCREEN_BOTT
  6
ByLayer
 62
  256
370
   -1
100
AcDbPolyline
 90
    2
 70
    0
 43
0
 10
93.8276
 20
51.32578
 10
93.77426
 20
51.56454
  0
LWPOLYLINE
  5
45F
100
AcDbEntity
  8
PACKAGE_GEOMET_SILKSCREEN_BOTT
  6
ByLayer
 62
  256
370
   -1
100
AcDbPolyline
 90
    2
 70
    0
 43
0
 10
93.93174
 20
50.8508
 10
93.8784
 20
51.08702
  0
LWPOLYLINE
  5
460
100
AcDbEntity
  8
PACKAGE_GEOMET_SILKSCREEN_BOTT
  6
ByLayer
 62
  256
370
   -1
100
AcDbPolyline
 90
    3
 70
    0
 43
0
 10
93.56852000000001
 20
50.32502
 10
94.04604
 20
50.32502
 10
93.99524
 20
50.5587
  0
LWPOLYLINE
  5
461
100
AcDbEntity
  8
PACKAGE_GEOMET_SILKSCREEN_BOTT
  6
ByLayer
 62
  256
370
   -1
100
AcDbPolyline
 90
    2
 70
    0
 43
0
 10
93.06814
 20
50.32502
 10
93.31706
 20
50.32502
  0
LWPOLYLINE
  5
462
100
AcDbEntity
  8
PACKAGE_GEOMET_SILKSCREEN_BOTT
  6
ByLayer
 62
  256
370
   -1
100
AcDbPolyline
 90
    2
 70
    0
 43
0
 10
92.56776000000001
 20
50.32502
 10
92.81668000000001
 20
50.32502
  0
LWPOLYLINE
  5
463
100
AcDbEntity
  8
PACKAGE_GEOMET_SILKSCREEN_BOTT
  6
ByLayer
 62
  256
370
   -1
100
AcDbPolyline
 90
    2
 70
    0
 43
0
 10
92.06738
 20
50.32502
 10
92.3163
 20
50.32502
  0
LWPOLYLINE
  5
464
100
AcDbEntity
  8
PACKAGE_GEOMET_SILKSCREEN_BOTT
  6
ByLayer
 62
  256
370
   -1
100
AcDbPolyline
 90
    2
 70
    0
 43
0
 10
91.56699999999999
 20
50.32502
 10
91.81592000000001
 20
50.32502
  0
LWPOLYLINE
  5
465
100
AcDbEntity
  8
PACKAGE_GEOMET_SILKSCREEN_BOTT
  6
ByLayer
 62
  256
370
   -1
100
AcDbPolyline
 90
    3
 70
    0
 43
0
 10
91.10726
 20
50.6857
 10
91.10726
 20
50.32502
 10
91.31807999999999
 20
50.32502
  0
LWPOLYLINE
  5
466
100
AcDbEntity
  8
PACKAGE_GEOMET_SILKSCREEN_BOTT
  6
ByLayer
 62
  256
370
   -1
100
AcDbPolyline
 90
    2
 70
    0
 43
0
 10
18.33372
 20
64.32295999999999
 10
18.4277
 20
65.22466
  0
LWPOLYLINE
  5
467
100
AcDbEntity
  8
PACKAGE_GEOMET_SILKSCREEN_BOTT
  6
ByLayer
 62
  256
370
   -1
100
AcDbPolyline
 90
    2
 70
    0
 43
0
 10
18.28292
 20
63.82766
 10
18.30832
 20
64.07658000000001
  0
LWPOLYLINE
  5
468
100
AcDbEntity
  8
PACKAGE_GEOMET_SILKSCREEN_BOTT
  6
ByLayer
 62
  256
370
   -1
100
AcDbPolyline
 90
    2
 70
    0
 43
0
 10
18.23212
 20
63.33236
 10
18.25752
 20
63.58128
  0
LWPOLYLINE
  5
469
100
AcDbEntity
  8
PACKAGE_GEOMET_SILKSCREEN_BOTT
  6
ByLayer
 62
  256
370
   -1
100
AcDbPolyline
 90
    2
 70
    0
 43
0
 10
18.17878
 20
62.8142
 10
18.20672
 20
63.08598
  0
LWPOLYLINE
  5
46A
100
AcDbEntity
  8
PACKAGE_GEOMET_SILKSCREEN_BOTT
  6
ByLayer
 62
  256
370
   -1
100
AcDbPolyline
 90
    2
 70
    0
 43
0
 10
18.12798
 20
62.3189
 10
18.15338
 20
62.56528
  0
LWPOLYLINE
  5
46B
100
AcDbEntity
  8
PACKAGE_GEOMET_SILKSCREEN_BOTT
  6
ByLayer
 62
  256
370
   -1
100
AcDbPolyline
 90
    2
 70
    0
 43
0
 10
18.07718
 20
61.8236
 10
18.10258
 20
62.06998
  0
LWPOLYLINE
  5
46C
100
AcDbEntity
  8
PACKAGE_GEOMET_SILKSCREEN_BOTT
  6
ByLayer
 62
  256
370
   -1
100
AcDbPolyline
 90
    2
 70
    0
 43
0
 10
18.02638
 20
61.3283
 10
18.05178
 20
61.57722
  0
LWPOLYLINE
  5
46D
100
AcDbEntity
  8
PACKAGE_GEOMET_SILKSCREEN_BOTT
  6
ByLayer
 62
  256
370
   -1
100
AcDbPolyline
 90
    2
 70
    0
 43
0
 10
17.97558
 20
60.83554
 10
18.00098
 20
61.08192
  0
LWPOLYLINE
  5
46E
100
AcDbEntity
  8
PACKAGE_GEOMET_SILKSCREEN_BOTT
  6
ByLayer
 62
  256
370
   -1
100
AcDbPolyline
 90
    2
 70
    0
 43
0
 10
17.92224
 20
60.3123
 10
17.95018
 20
60.58662
  0
LWPOLYLINE
  5
46F
100
AcDbEntity
  8
PACKAGE_GEOMET_SILKSCREEN_BOTT
  6
ByLayer
 62
  256
370
   -1
100
AcDbPolyline
 90
    2
 70
    0
 43
0
 10
17.8689
 20
59.81954
 10
17.8943
 20
60.06592
  0
LWPOLYLINE
  5
470
100
AcDbEntity
  8
PACKAGE_GEOMET_SILKSCREEN_BOTT
  6
ByLayer
 62
  256
370
   -1
100
AcDbPolyline
 90
    2
 70
    0
 43
0
 10
17.8181
 20
59.32424
 10
17.8435
 20
59.57062
  0
LWPOLYLINE
  5
471
100
AcDbEntity
  8
PACKAGE_GEOMET_SILKSCREEN_BOTT
  6
ByLayer
 62
  256
370
   -1
100
AcDbPolyline
 90
    2
 70
    0
 43
0
 10
17.7673
 20
58.82894
 10
17.7927
 20
59.07786
  0
LWPOLYLINE
  5
472
100
AcDbEntity
  8
PACKAGE_GEOMET_SILKSCREEN_BOTT
  6
ByLayer
 62
  256
370
   -1
100
AcDbPolyline
 90
    2
 70
    0
 43
0
 10
17.56664
 20
56.82488
 10
17.5768
 20
56.9341
  0
LWPOLYLINE
  5
473
100
AcDbEntity
  8
PACKAGE_GEOMET_SILKSCREEN_BOTT
  6
ByLayer
 62
  256
370
   -1
100
AcDbPolyline
 90
    2
 70
    0
 43
0
 10
17.51584
 20
56.32958
 10
17.54124
 20
56.5785
  0
LWPOLYLINE
  5
474
100
AcDbEntity
  8
PACKAGE_GEOMET_SILKSCREEN_BOTT
  6
ByLayer
 62
  256
370
   -1
100
AcDbPolyline
 90
    2
 70
    0
 43
0
 10
17.46504
 20
55.83428
 10
17.49044
 20
56.08066
  0
LWPOLYLINE
  5
475
100
AcDbEntity
  8
PACKAGE_GEOMET_SILKSCREEN_BOTT
  6
ByLayer
 62
  256
370
   -1
100
AcDbPolyline
 90
    2
 70
    0
 43
0
 10
17.4117
 20
55.31358
 10
17.4371
 20
55.5625
  0
LWPOLYLINE
  5
476
100
AcDbEntity
  8
PACKAGE_GEOMET_SILKSCREEN_BOTT
  6
ByLayer
 62
  256
370
   -1
100
AcDbPolyline
 90
    2
 70
    0
 43
0
 10
17.36344
 20
54.82082
 10
17.38884
 20
55.0672
  0
LWPOLYLINE
  5
477
100
AcDbEntity
  8
PACKAGE_GEOMET_SILKSCREEN_BOTT
  6
ByLayer
 62
  256
370
   -1
100
AcDbPolyline
 90
    3
 70
    0
 43
0
 10
17.56664
 20
54.37378
 10
17.31772
 20
54.37378
 10
17.33804
 20
54.5719
  0
LWPOLYLINE
  5
478
100
AcDbEntity
  8
PACKAGE_GEOMET_SILKSCREEN_BOTT
  6
ByLayer
 62
  256
370
   -1
100
AcDbPolyline
 90
    2
 70
    0
 43
0
 10
18.06702
 20
54.37378
 10
17.8181
 20
54.37378
  0
LWPOLYLINE
  5
479
100
AcDbEntity
  8
PACKAGE_GEOMET_SILKSCREEN_BOTT
  6
ByLayer
 62
  256
370
   -1
100
AcDbPolyline
 90
    2
 70
    0
 43
0
 10
18.5674
 20
54.37378
 10
18.31848
 20
54.37378
  0
LWPOLYLINE
  5
47A
100
AcDbEntity
  8
PACKAGE_GEOMET_SILKSCREEN_BOTT
  6
ByLayer
 62
  256
370
   -1
100
AcDbPolyline
 90
    2
 70
    0
 43
0
 10
91.79052
 20
64.32295999999999
 10
91.71686
 20
65.04432
  0
LWPOLYLINE
  5
47B
100
AcDbEntity
  8
PACKAGE_GEOMET_SILKSCREEN_BOTT
  6
ByLayer
 62
  256
370
   -1
100
AcDbPolyline
 90
    2
 70
    0
 43
0
 10
91.84132
 20
63.82766
 10
91.81592000000001
 20
64.07404
  0
LWPOLYLINE
  5
47C
100
AcDbEntity
  8
PACKAGE_GEOMET_SILKSCREEN_BOTT
  6
ByLayer
 62
  256
370
   -1
100
AcDbPolyline
 90
    2
 70
    0
 43
0
 10
91.89212000000001
 20
63.33236
 10
91.86672
 20
63.57874
  0
LWPOLYLINE
  5
47D
100
AcDbEntity
  8
PACKAGE_GEOMET_SILKSCREEN_BOTT
  6
ByLayer
 62
  256
370
   -1
100
AcDbPolyline
 90
    2
 70
    0
 43
0
 10
91.94799999999999
 20
62.81166
 10
91.9226
 20
63.06058
  0
LWPOLYLINE
  5
47E
100
AcDbEntity
  8
PACKAGE_GEOMET_SILKSCREEN_BOTT
  6
ByLayer
 62
  256
370
   -1
100
AcDbPolyline
 90
    2
 70
    0
 43
0
 10
91.9988
 20
62.31636
 10
91.9734
 20
62.56528
  0
LWPOLYLINE
  5
47F
100
AcDbEntity
  8
PACKAGE_GEOMET_SILKSCREEN_BOTT
  6
ByLayer
 62
  256
370
   -1
100
AcDbPolyline
 90
    2
 70
    0
 43
0
 10
92.0496
 20
61.82106
 10
92.02419999999999
 20
62.06998
  0
LWPOLYLINE
  5
480
100
AcDbEntity
  8
PACKAGE_GEOMET_SILKSCREEN_BOTT
  6
ByLayer
 62
  256
370
   -1
100
AcDbPolyline
 90
    2
 70
    0
 43
0
 10
92.10039999999999
 20
61.3283
 10
92.075
 20
61.57468
  0
LWPOLYLINE
  5
481
100
AcDbEntity
  8
PACKAGE_GEOMET_SILKSCREEN_BOTT
  6
ByLayer
 62
  256
370
   -1
100
AcDbPolyline
 90
    2
 70
    0
 43
0
 10
92.1512
 20
60.833
 10
92.1258
 20
61.07938
  0
LWPOLYLINE
  5
482
100
AcDbEntity
  8
PACKAGE_GEOMET_SILKSCREEN_BOTT
  6
ByLayer
 62
  256
370
   -1
100
AcDbPolyline
 90
    2
 70
    0
 43
0
 10
92.20453999999999
 20
60.3123
 10
92.17659999999999
 20
60.58662
  0
LWPOLYLINE
  5
483
100
AcDbEntity
  8
PACKAGE_GEOMET_SILKSCREEN_BOTT
  6
ByLayer
 62
  256
370
   -1
100
AcDbPolyline
 90
    2
 70
    0
 43
0
 10
92.25534
 20
59.817
 10
92.22994
 20
60.06592
  0
LWPOLYLINE
  5
484
100
AcDbEntity
  8
PACKAGE_GEOMET_SILKSCREEN_BOTT
  6
ByLayer
 62
  256
370
   -1
100
AcDbPolyline
 90
    2
 70
    0
 43
0
 10
92.30614
 20
59.32424
 10
92.28073999999999
 20
59.57062
  0
LWPOLYLINE
  5
485
100
AcDbEntity
  8
PACKAGE_GEOMET_SILKSCREEN_BOTT
  6
ByLayer
 62
  256
370
   -1
100
AcDbPolyline
 90
    2
 70
    0
 43
0
 10
92.35693999999999
 20
58.82894
 10
92.33154
 20
59.07532
  0
LWPOLYLINE
  5
486
100
AcDbEntity
  8
PACKAGE_GEOMET_SILKSCREEN_BOTT
  6
ByLayer
 62
  256
370
   -1
100
AcDbPolyline
 90
    2
 70
    0
 43
0
 10
92.56776000000001
 20
56.82488
 10
92.55759999999999
 20
56.9341
  0
LWPOLYLINE
  5
487
100
AcDbEntity
  8
PACKAGE_GEOMET_SILKSCREEN_BOTT
  6
ByLayer
 62
  256
370
   -1
100
AcDbPolyline
 90
    2
 70
    0
 43
0
 10
92.61856
 20
56.32958
 10
92.59316
 20
56.5785
  0
LWPOLYLINE
  5
488
100
AcDbEntity
  8
PACKAGE_GEOMET_SILKSCREEN_BOTT
  6
ByLayer
 62
  256
370
   -1
100
AcDbPolyline
 90
    2
 70
    0
 43
0
 10
92.67189999999999
 20
55.81142
 10
92.6465
 20
56.0578
  0
LWPOLYLINE
  5
489
100
AcDbEntity
  8
PACKAGE_GEOMET_SILKSCREEN_BOTT
  6
ByLayer
 62
  256
370
   -1
100
AcDbPolyline
 90
    2
 70
    0
 43
0
 10
92.7227
 20
55.31358
 10
92.6973
 20
55.5625
  0
LWPOLYLINE
  5
48A
100
AcDbEntity
  8
PACKAGE_GEOMET_SILKSCREEN_BOTT
  6
ByLayer
 62
  256
370
   -1
100
AcDbPolyline
 90
    2
 70
    0
 43
0
 10
92.77096
 20
54.82082
 10
92.74556
 20
55.0672
  0
LWPOLYLINE
  5
48B
100
AcDbEntity
  8
PACKAGE_GEOMET_SILKSCREEN_BOTT
  6
ByLayer
 62
  256
370
   -1
100
AcDbPolyline
 90
    3
 70
    0
 43
0
 10
92.56776000000001
 20
54.37378
 10
92.81668000000001
 20
54.37378
 10
92.79636000000001
 20
54.5719
  0
LWPOLYLINE
  5
48C
100
AcDbEntity
  8
PACKAGE_GEOMET_SILKSCREEN_BOTT
  6
ByLayer
 62
  256
370
   -1
100
AcDbPolyline
 90
    2
 70
    0
 43
0
 10
92.06738
 20
54.37378
 10
92.3163
 20
54.37378
  0
LWPOLYLINE
  5
48D
100
AcDbEntity
  8
PACKAGE_GEOMET_SILKSCREEN_BOTT
  6
ByLayer
 62
  256
370
   -1
100
AcDbPolyline
 90
    2
 70
    0
 43
0
 10
91.56699999999999
 20
54.37378
 10
91.81592000000001
 20
54.37378
  0
LWPOLYLINE
  5
48E
100
AcDbEntity
  8
PACKAGE_GEOMET_SILKSCREEN_BOTT
  6
ByLayer
 62
  256
370
   -1
100
AcDbPolyline
 90
    2
 70
    0
 43
0
 10
59.436
 20
75.184
 10
57.44718
 20
75.184
  0
LWPOLYLINE
  5
48F
100
AcDbEntity
  8
PACKAGE_GEOMET_SILKSCREEN_BOTT
  6
ByLayer
 62
  256
370
   -1
100
AcDbPolyline
 90
    2
 70
    0
 43
0
 10
21.40712
 20
75.184
 10
18.5674
 20
75.184
  0
LWPOLYLINE
  5
490
100
AcDbEntity
  8
PACKAGE_GEOMET_SILKSCREEN_BOTT
  6
ByLayer
 62
  256
370
   -1
100
AcDbPolyline
 90
    2
 70
    0
 43
0
 10
57.45734
 20
75.10526
 10
59.41822
 20
75.10526
  0
LWPOLYLINE
  5
491
100
AcDbEntity
  8
PACKAGE_GEOMET_SILKSCREEN_BOTT
  6
ByLayer
 62
  256
370
   -1
100
AcDbPolyline
 90
   41
 70
    0
 43
0
 10
88.49614
 20
75.10526
 10
90.0684
 20
75.10526
 10
90.0684
 20
76.33462
 10
90.84818
 20
76.33462
 10
90.84818
 20
73.03516
 10
90.86596
 20
72.8853
 10
90.93707999999999
 20
72.75576
 10
91.44762
 20
72.22490000000001
 10
91.58732000000001
 20
72.10552
 10
91.64828
 20
72.04456
 10
91.69654
 20
71.91502
 10
91.71686
 20
71.78548000000001
 10
91.71686
 20
63.67526
 10
91.10726
 20
63.67526
 10
91.10726
 20
50.6857
 10
88.56726
 20
50.6857
 10
88.56726
 20
53.47462
 10
90.80754
 20
53.47462
 10
90.80754
 20
54.09438
 10
90.63736
 20
54.1147
 10
90.25636
 20
54.13502
 10
89.95663999999999
 20
54.13502
 10
89.32671999999999
 20
54.15534
 10
89.23782
 20
54.1655
 10
89.19718
 20
54.17566
 10
89.13621999999999
 20
54.23408
 10
89.13621999999999
 20
55.06466
 10
89.15654000000001
 20
55.1942
 10
89.2175
 20
55.41518
 10
89.34704000000001
 20
55.69458
 10
89.38768
 20
55.7657
 10
89.45626
 20
55.87492
 10
89.56802
 20
56.0451
 10
89.6366
 20
56.15432
 10
89.95663999999999
 20
56.63438
 10
90.17762
 20
56.8452
 10
90.80754
 20
56.8452
 10
90.80754
 20
63.67526
 10
89.45626
 20
63.67526
 10
89.45626
 20
68.06438
 10
88.72727999999999
 20
68.06438
  0
LWPOLYLINE
  5
492
100
AcDbEntity
  8
PACKAGE_GEOMET_SILKSCREEN_BOTT
  6
ByLayer
 62
  256
370
   -1
100
AcDbPolyline
 90
    2
 70
    0
 43
0
 10
59.5884
 20
68.06438
 10
57.70626
 20
68.06438
  0
LWPOLYLINE
  5
493
100
AcDbEntity
  8
PACKAGE_GEOMET_SILKSCREEN_BOTT
  6
ByLayer
 62
  256
370
   -1
100
AcDbPolyline
 90
    2
 70
    0
 43
0
 10
57.67832
 20
67.97548
 10
59.63666
 20
67.97548
  0
LWPOLYLINE
  5
494
100
AcDbEntity
  8
PACKAGE_GEOMET_SILKSCREEN_BOTT
  6
ByLayer
 62
  256
370
   -1
100
AcDbPolyline
 90
   34
 70
    0
 43
0
 10
21.61794
 20
68.06438
 10
20.66798
 20
68.06438
 10
20.66798
 20
63.67526
 10
19.3167
 20
63.67526
 10
19.3167
 20
56.92394
 10
19.99742
 20
56.92394
 10
20.07616
 20
56.8452
 10
20.27682
 20
56.63438
 10
20.38604
 20
56.515
 10
20.51812
 20
56.3753
 10
20.53844
 20
56.35498
 10
20.59686
 20
56.2737
 10
20.66798
 20
56.1848
 10
20.75688
 20
55.9943
 10
20.87626
 20
55.69458
 10
20.9169
 20
55.6133
 10
20.95754
 20
55.50408
 10
20.98802
 20
55.42534
 10
21.00834
 20
55.21452
 10
21.00834
 20
54.28488
 10
20.98802
 20
54.23408
 10
20.94738
 20
54.19598
 10
20.9169
 20
54.17566
 10
20.8661
 20
54.1655
 10
20.76704
 20
54.15534
 10
20.1676
 20
54.13502
 10
19.8882
 20
54.13502
 10
19.53768
 20
54.1147
 10
19.48688
 20
54.1147
 10
19.37766
 20
54.09438
 10
19.3167
 20
54.09438
 10
19.3167
 20
53.47462
 10
21.78812
 20
53.47462
 10
21.78812
 20
50.6857
  0
LWPOLYLINE
  5
495
100
AcDbEntity
  8
PACKAGE_GEOMET_SILKSCREEN_BOTT
  6
ByLayer
 62
  256
370
   -1
100
AcDbPolyline
 90
    2
 70
    0
 43
0
 10
19.5072
 20
62.00394
 10
19.5072
 20
64.92494000000001
  0
LWPOLYLINE
  5
496
100
AcDbEntity
  8
PACKAGE_GEOMET_SILKSCREEN_BOTT
  6
ByLayer
 62
  256
370
   -1
100
AcDbPolyline
 90
    2
 70
    0
 43
0
 10
19.85772
 20
61.99378
 10
19.85772
 20
67.86372
  0
LWPOLYLINE
  5
497
100
AcDbEntity
  8
PACKAGE_GEOMET_SILKSCREEN_BOTT
  6
ByLayer
 62
  256
370
   -1
100
AcDbPolyline
 90
    2
 70
    0
 43
0
 10
90.59672
 20
62.02426
 10
90.59672
 20
64.92494000000001
  0
LWPOLYLINE
  5
498
100
AcDbEntity
  8
PACKAGE_GEOMET_SILKSCREEN_BOTT
  6
ByLayer
 62
  256
370
   -1
100
AcDbPolyline
 90
    2
 70
    0
 43
0
 10
90.2462
 20
57.08396
 10
90.2462
 20
56.9341
  0
LWPOLYLINE
  5
499
100
AcDbEntity
  8
PACKAGE_GEOMET_SILKSCREEN_BOTT
  6
ByLayer
 62
  256
370
   -1
100
AcDbPolyline
 90
    2
 70
    0
 43
0
 10
17.72666
 20
58.43524
 10
17.7419
 20
58.58256
  0
LWPOLYLINE
  5
49A
100
AcDbEntity
  8
PACKAGE_GEOMET_SILKSCREEN_BOTT
  6
ByLayer
 62
  256
370
   -1
100
AcDbPolyline
 90
    2
 70
    0
 43
0
 10
19.01698
 20
54.37378
 10
18.81632
 20
54.37378
  0
LWPOLYLINE
  5
49B
100
AcDbEntity
  8
PACKAGE_GEOMET_SILKSCREEN_BOTT
  6
ByLayer
 62
  256
370
   -1
100
AcDbPolyline
 90
    2
 70
    0
 43
0
 10
92.39758
 20
58.43524
 10
92.38234
 20
58.58256
  0
LWPOLYLINE
  5
49C
100
AcDbEntity
  8
PACKAGE_GEOMET_SILKSCREEN_BOTT
  6
ByLayer
 62
  256
370
   -1
100
AcDbPolyline
 90
    2
 70
    0
 43
0
 10
91.10726
 20
54.37378
 10
91.31807999999999
 20
54.37378
  0
LWPOLYLINE
  5
49D
100
AcDbEntity
  8
PACKAGE_GEOMET_SILKSCREEN_BOTT
  6
ByLayer
 62
  256
370
   -1
100
AcDbPolyline
 90
   16
 70
    0
 43
0
 10
21.78812
 20
50.6857
 10
19.01698
 20
50.6857
 10
19.01698
 20
63.67526
 10
18.4277
 20
63.67526
 10
18.4277
 20
71.86422
 10
18.44802
 20
71.97598000000001
 10
18.50644
 20
72.06488
 10
18.57756
 20
72.1233
 10
19.18716
 20
72.75576
 10
19.21764
 20
72.81417999999999
 10
19.24812
 20
72.8853
 10
19.26844
 20
72.99451999999999
 10
19.26844
 20
76.33462
 10
20.07616
 20
76.33462
 10
20.07616
 20
75.10526
 10
21.39696
 20
75.10526
  0
LWPOLYLINE
  5
49E
100
AcDbEntity
  8
PACKAGE_GEOMET_SILKSCREEN_BOTT
  6
ByLayer
 62
  256
370
   -1
100
AcDbPolyline
 90
    2
 70
    0
 43
0
 10
19.07794
 20
75.44562000000001
 10
19.4183
 20
75.44562000000001
  0
LWPOLYLINE
  5
49F
100
AcDbEntity
  8
PACKAGE_GEOMET_SILKSCREEN_BOTT
  6
ByLayer
 62
  256
370
   -1
100
AcDbPolyline
 90
    2
 70
    0
 43
0
 10
19.4183
 20
75.3745
 10
19.07794
 20
75.3745
  0
LWPOLYLINE
  5
4A0
100
AcDbEntity
  8
PACKAGE_GEOMET_SILKSCREEN_BOTT
  6
ByLayer
 62
  256
370
   -1
100
AcDbPolyline
 90
    2
 70
    0
 43
0
 10
19.4183
 20
75.48372000000001
 10
19.07794
 20
75.48372000000001
  0
LWPOLYLINE
  5
4A1
100
AcDbEntity
  8
PACKAGE_GEOMET_SILKSCREEN_BOTT
  6
ByLayer
 62
  256
370
   -1
100
AcDbPolyline
 90
    2
 70
    0
 43
0
 10
19.07794
 20
75.48372000000001
 10
19.07794
 20
75.184
  0
LWPOLYLINE
  5
4A2
100
AcDbEntity
  8
PACKAGE_GEOMET_SILKSCREEN_BOTT
  6
ByLayer
 62
  256
370
   -1
100
AcDbPolyline
 90
    2
 70
    0
 43
0
 10
19.4183
 20
75.48372000000001
 10
19.4183
 20
75.184
  0
LWPOLYLINE
  5
4A3
100
AcDbEntity
  8
PACKAGE_GEOMET_SILKSCREEN_BOTT
  6
ByLayer
 62
  256
370
   -1
100
AcDbPolyline
 90
    2
 70
    0
 43
0
 10
91.55683999999999
 20
75.184
 10
88.48851999999999
 20
75.184
  0
LWPOLYLINE
  5
4A4
100
AcDbEntity
  8
PACKAGE_GEOMET_SILKSCREEN_BOTT
  6
ByLayer
 62
  256
370
   -1
100
AcDbPolyline
 90
    2
 70
    0
 43
0
 10
18.5674
 20
75.184
 10
18.5674
 20
67.97548
  0
LWPOLYLINE
  5
4A5
100
AcDbEntity
  8
PACKAGE_GEOMET_SILKSCREEN_BOTT
  6
ByLayer
 62
  256
370
   -1
100
AcDbPolyline
 90
    2
 70
    0
 43
0
 10
19.85772
 20
56.9341
 10
19.85772
 20
57.1754
  0
LWPOLYLINE
  5
4A6
100
AcDbEntity
  8
PACKAGE_GEOMET_SILKSCREEN_BOTT
  6
ByLayer
 62
  256
370
   -1
100
AcDbPolyline
 90
    2
 70
    0
 43
0
 10
19.07794
 20
67.8053
 10
19.00682
 20
67.71386
  0
LWPOLYLINE
  5
4A7
100
AcDbEntity
  8
PACKAGE_GEOMET_SILKSCREEN_BOTT
  6
ByLayer
 62
  256
370
   -1
100
AcDbPolyline
 90
    2
 70
    0
 43
0
 10
18.96618
 20
67.65544
 10
19.00682
 20
67.71386
  0
LWPOLYLINE
  5
4A8
100
AcDbEntity
  8
PACKAGE_GEOMET_SILKSCREEN_BOTT
  6
ByLayer
 62
  256
370
   -1
100
AcDbPolyline
 90
    2
 70
    0
 43
0
 10
19.85772
 20
67.86372
 10
19.07794
 20
67.86372
  0
LWPOLYLINE
  5
4A9
100
AcDbEntity
  8
PACKAGE_GEOMET_SILKSCREEN_BOTT
  6
ByLayer
 62
  256
370
   -1
100
AcDbPolyline
 90
    2
 70
    0
 43
0
 10
19.07794
 20
67.97548
 10
19.07794
 20
51.28514
  0
LWPOLYLINE
  5
4AA
100
AcDbEntity
  8
PACKAGE_GEOMET_SILKSCREEN_BOTT
  6
ByLayer
 62
  256
370
   -1
100
AcDbPolyline
 90
    2
 70
    0
 43
0
 10
19.4183
 20
67.97548
 10
19.4183
 20
67.86372
  0
LWPOLYLINE
  5
4AB
100
AcDbEntity
  8
PACKAGE_GEOMET_SILKSCREEN_BOTT
  6
ByLayer
 62
  256
370
   -1
100
AcDbPolyline
 90
    2
 70
    0
 43
0
 10
18.96618
 20
67.65544
 10
18.96618
 20
59.44362
  0
LWPOLYLINE
  5
4AC
100
AcDbEntity
  8
PACKAGE_GEOMET_SILKSCREEN_BOTT
  6
ByLayer
 62
  256
370
   -1
100
AcDbPolyline
 90
    2
 70
    0
 43
0
 10
18.5674
 20
67.97548
 10
21.6281
 20
67.97548
  0
LWPOLYLINE
  5
4AD
100
AcDbEntity
  8
PACKAGE_GEOMET_SILKSCREEN_BOTT
  6
ByLayer
 62
  256
370
   -1
100
AcDbPolyline
 90
    2
 70
    0
 43
0
 10
19.00682
 20
59.35472
 10
19.00682
 20
67.71386
  0
LWPOLYLINE
  5
4AE
100
AcDbEntity
  8
PACKAGE_GEOMET_SILKSCREEN_BOTT
  6
ByLayer
 62
  256
370
   -1
100
AcDbPolyline
 90
    2
 70
    0
 43
0
 10
18.96618
 20
67.45478
 10
19.07794
 20
67.45478
  0
LWPOLYLINE
  5
4AF
100
AcDbEntity
  8
PACKAGE_GEOMET_SILKSCREEN_BOTT
  6
ByLayer
 62
  256
370
   -1
100
AcDbPolyline
 90
    2
 70
    0
 43
0
 10
19.85772
 20
64.92494000000001
 10
19.67738
 20
64.92494000000001
  0
LWPOLYLINE
  5
4B0
100
AcDbEntity
  8
PACKAGE_GEOMET_SILKSCREEN_BOTT
  6
ByLayer
 62
  256
370
   -1
100
AcDbPolyline
 90
    2
 70
    0
 43
0
 10
19.67738
 20
64.92494000000001
 10
19.46656
 20
64.92494000000001
  0
LWPOLYLINE
  5
4B1
100
AcDbEntity
  8
PACKAGE_GEOMET_SILKSCREEN_BOTT
  6
ByLayer
 62
  256
370
   -1
100
AcDbPolyline
 90
    2
 70
    0
 43
0
 10
19.46656
 20
64.92494000000001
 10
19.29638
 20
64.92494000000001
  0
LWPOLYLINE
  5
4B2
100
AcDbEntity
  8
PACKAGE_GEOMET_SILKSCREEN_BOTT
  6
ByLayer
 62
  256
370
   -1
100
AcDbPolyline
 90
    2
 70
    0
 43
0
 10
19.29638
 20
64.92494000000001
 10
19.11604
 20
64.92494000000001
  0
LWPOLYLINE
  5
4B3
100
AcDbEntity
  8
PACKAGE_GEOMET_SILKSCREEN_BOTT
  6
ByLayer
 62
  256
370
   -1
100
AcDbPolyline
 90
    2
 70
    0
 43
0
 10
19.11604
 20
64.92494000000001
 10
19.11604
 20
64.90461999999999
  0
LWPOLYLINE
  5
4B4
100
AcDbEntity
  8
PACKAGE_GEOMET_SILKSCREEN_BOTT
  6
ByLayer
 62
  256
370
   -1
100
AcDbPolyline
 90
    2
 70
    0
 43
0
 10
19.11604
 20
64.90461999999999
 10
19.07794
 20
64.90461999999999
  0
LWPOLYLINE
  5
4B5
100
AcDbEntity
  8
PACKAGE_GEOMET_SILKSCREEN_BOTT
  6
ByLayer
 62
  256
370
   -1
100
AcDbPolyline
 90
    2
 70
    0
 43
0
 10
19.4183
 20
64.90461999999999
 10
19.07794
 20
64.90461999999999
  0
LWPOLYLINE
  5
4B6
100
AcDbEntity
  8
PACKAGE_GEOMET_SILKSCREEN_BOTT
  6
ByLayer
 62
  256
370
   -1
100
AcDbPolyline
 90
    2
 70
    0
 43
0
 10
19.4183
 20
64.90461999999999
 10
19.4183
 20
54.88432
  0
LWPOLYLINE
  5
4B7
100
AcDbEntity
  8
PACKAGE_GEOMET_SILKSCREEN_BOTT
  6
ByLayer
 62
  256
370
   -1
100
AcDbPolyline
 90
    2
 70
    0
 43
0
 10
19.5072
 20
56.9341
 10
19.5072
 20
57.1754
  0
LWPOLYLINE
  5
4B8
100
AcDbEntity
  8
PACKAGE_GEOMET_SILKSCREEN_BOTT
  6
ByLayer
 62
  256
370
   -1
100
AcDbPolyline
 90
    2
 70
    0
 43
0
 10
19.4183
 20
64.52361999999999
 10
19.07794
 20
64.52361999999999
  0
LWPOLYLINE
  5
4B9
100
AcDbEntity
  8
PACKAGE_GEOMET_SILKSCREEN_BOTT
  6
ByLayer
 62
  256
370
   -1
100
AcDbPolyline
 90
    2
 70
    0
 43
0
 10
19.5072
 20
64.72427999999999
 10
19.85772
 20
64.72427999999999
  0
LWPOLYLINE
  5
4BA
100
AcDbEntity
  8
PACKAGE_GEOMET_SILKSCREEN_BOTT
  6
ByLayer
 62
  256
370
   -1
100
AcDbPolyline
 90
    2
 70
    0
 43
0
 10
21.25726
 20
63.32474
 10
19.85772
 20
63.32474
  0
LWPOLYLINE
  5
4BB
100
AcDbEntity
  8
PACKAGE_GEOMET_SILKSCREEN_BOTT
  6
ByLayer
 62
  256
370
   -1
100
AcDbPolyline
 90
    2
 70
    0
 43
0
 10
19.85772
 20
62.12586
 10
21.25726
 20
62.12586
  0
LWPOLYLINE
  5
4BC
100
AcDbEntity
  8
PACKAGE_GEOMET_SILKSCREEN_BOTT
  6
ByLayer
 62
  256
370
   -1
100
AcDbPolyline
 90
    2
 70
    0
 43
0
 10
19.00682
 20
59.35472
 10
19.07794
 20
59.26582
  0
LWPOLYLINE
  5
4BD
100
AcDbEntity
  8
PACKAGE_GEOMET_SILKSCREEN_BOTT
  6
ByLayer
 62
  256
370
   -1
100
AcDbPolyline
 90
    2
 70
    0
 43
0
 10
19.00682
 20
59.35472
 10
18.96618
 20
59.44362
  0
LWPOLYLINE
  5
4BE
100
AcDbEntity
  8
PACKAGE_GEOMET_SILKSCREEN_BOTT
  6
ByLayer
 62
  256
370
   -1
100
AcDbPolyline
 90
    2
 70
    0
 43
0
 10
18.96618
 20
59.64428
 10
19.07794
 20
59.64428
  0
LWPOLYLINE
  5
4BF
100
AcDbEntity
  8
PACKAGE_GEOMET_SILKSCREEN_BOTT
  6
ByLayer
 62
  256
370
   -1
100
AcDbPolyline
 90
    2
 70
    0
 43
0
 10
17.45742
 20
56.9341
 10
19.07794
 20
56.9341
  0
LWPOLYLINE
  5
4C0
100
AcDbEntity
  8
PACKAGE_GEOMET_SILKSCREEN_BOTT
  6
ByLayer
 62
  256
370
   -1
100
AcDbPolyline
 90
    2
 70
    0
 43
0
 10
19.07794
 20
58.43524
 10
17.45742
 20
58.43524
  0
LWPOLYLINE
  5
4C1
100
AcDbEntity
  8
PACKAGE_GEOMET_SILKSCREEN_BOTT
  6
ByLayer
 62
  256
370
   -1
100
AcDbPolyline
 90
    2
 70
    0
 43
0
 10
17.45742
 20
58.43524
 10
17.45742
 20
56.9341
  0
LWPOLYLINE
  5
4C2
100
AcDbEntity
  8
PACKAGE_GEOMET_SILKSCREEN_BOTT
  6
ByLayer
 62
  256
370
   -1
100
AcDbPolyline
 90
    2
 70
    0
 43
0
 10
19.85772
 20
57.1754
 10
19.5072
 20
57.1754
  0
LWPOLYLINE
  5
4C3
100
AcDbEntity
  8
PACKAGE_GEOMET_SILKSCREEN_BOTT
  6
ByLayer
 62
  256
370
   -1
100
AcDbPolyline
 90
    2
 70
    0
 43
0
 10
19.85772
 20
56.9341
 10
19.4183
 20
56.9341
  0
LWPOLYLINE
  5
4C4
100
AcDbEntity
  8
PACKAGE_GEOMET_SILKSCREEN_BOTT
  6
ByLayer
 62
  256
370
   -1
100
AcDbPolyline
 90
    2
 70
    0
 43
0
 10
17.80794
 20
58.43524
 10
17.80794
 20
56.9341
  0
LWPOLYLINE
  5
4C5
100
AcDbEntity
  8
PACKAGE_GEOMET_SILKSCREEN_BOTT
  6
ByLayer
 62
  256
370
   -1
100
AcDbPolyline
 90
    2
 70
    0
 43
0
 10
18.02638
 20
58.43524
 10
18.02638
 20
56.9341
  0
LWPOLYLINE
  5
4C6
100
AcDbEntity
  8
PACKAGE_GEOMET_SILKSCREEN_BOTT
  6
ByLayer
 62
  256
370
   -1
100
AcDbPolyline
 90
    2
 70
    0
 43
0
 10
19.4183
 20
56.21528
 10
19.07794
 20
56.21528
  0
LWPOLYLINE
  5
4C7
100
AcDbEntity
  8
PACKAGE_GEOMET_SILKSCREEN_BOTT
  6
ByLayer
 62
  256
370
   -1
100
AcDbPolyline
 90
    2
 70
    0
 43
0
 10
19.07794
 20
55.9943
 10
19.4183
 20
55.9943
  0
LWPOLYLINE
  5
4C8
100
AcDbEntity
  8
PACKAGE_GEOMET_SILKSCREEN_BOTT
  6
ByLayer
 62
  256
370
   -1
100
AcDbPolyline
 90
    2
 70
    0
 43
0
 10
19.4183
 20
55.82412
 10
19.07794
 20
55.82412
  0
LWPOLYLINE
  5
4C9
100
AcDbEntity
  8
PACKAGE_GEOMET_SILKSCREEN_BOTT
  6
ByLayer
 62
  256
370
   -1
100
AcDbPolyline
 90
    2
 70
    0
 43
0
 10
19.07794
 20
55.60568
 10
19.4183
 20
55.60568
  0
LWPOLYLINE
  5
4CA
100
AcDbEntity
  8
PACKAGE_GEOMET_SILKSCREEN_BOTT
  6
ByLayer
 62
  256
370
   -1
100
AcDbPolyline
 90
    2
 70
    0
 43
0
 10
19.98726
 20
53.594
 10
19.79676
 20
54.88432
  0
LWPOLYLINE
  5
4CB
100
AcDbEntity
  8
PACKAGE_GEOMET_SILKSCREEN_BOTT
  6
ByLayer
 62
  256
370
   -1
100
AcDbPolyline
 90
    2
 70
    0
 43
0
 10
19.61642
 20
54.88432
 10
19.61642
 20
51.23434
  0
LWPOLYLINE
  5
4CC
100
AcDbEntity
  8
PACKAGE_GEOMET_SILKSCREEN_BOTT
  6
ByLayer
 62
  256
370
   -1
100
AcDbPolyline
 90
    2
 70
    0
 43
0
 10
19.79676
 20
54.88432
 10
19.07794
 20
54.88432
  0
LWPOLYLINE
  5
4CD
100
AcDbEntity
  8
PACKAGE_GEOMET_SILKSCREEN_BOTT
  6
ByLayer
 62
  256
370
   -1
100
AcDbPolyline
 90
    2
 70
    0
 43
0
 10
21.0566
 20
55.0545
 10
19.79676
 20
54.88432
  0
LWPOLYLINE
  5
4CE
100
AcDbEntity
  8
PACKAGE_GEOMET_SILKSCREEN_BOTT
  6
ByLayer
 62
  256
370
   -1
100
AcDbPolyline
 90
    2
 70
    0
 43
0
 10
19.4183
 20
55.18404
 10
19.07794
 20
55.18404
  0
LWPOLYLINE
  5
4CF
100
AcDbEntity
  8
PACKAGE_GEOMET_SILKSCREEN_BOTT
  6
ByLayer
 62
  256
370
   -1
100
AcDbPolyline
 90
    2
 70
    0
 43
0
 10
20.18792
 20
63.32474
 10
20.18792
 20
62.12586
  0
LWPOLYLINE
  5
4D0
100
AcDbEntity
  8
PACKAGE_GEOMET_SILKSCREEN_BOTT
  6
ByLayer
 62
  256
370
   -1
100
AcDbPolyline
 90
    2
 70
    0
 43
0
 10
21.03628
 20
62.12586
 10
21.03628
 20
63.32474
  0
LWPOLYLINE
  5
4D1
100
AcDbEntity
  8
PACKAGE_GEOMET_SILKSCREEN_BOTT
  6
ByLayer
 62
  256
370
   -1
100
AcDbPolyline
 90
    2
 70
    0
 43
0
 10
21.25726
 20
62.12586
 10
21.25726
 20
63.32474
  0
LWPOLYLINE
  5
4D2
100
AcDbEntity
  8
PACKAGE_GEOMET_SILKSCREEN_BOTT
  6
ByLayer
 62
  256
370
   -1
100
AcDbPolyline
 90
    2
 70
    0
 43
0
 10
20.22856
 20
54.94528
 10
20.40636
 20
53.63464
  0
LWPOLYLINE
  5
4D3
100
AcDbEntity
  8
PACKAGE_GEOMET_SILKSCREEN_BOTT
  6
ByLayer
 62
  256
370
   -1
100
AcDbPolyline
 90
    2
 70
    0
 43
0
 10
21.23694
 20
53.76418
 10
21.0566
 20
55.0545
  0
LWPOLYLINE
  5
4D4
100
AcDbEntity
  8
PACKAGE_GEOMET_SILKSCREEN_BOTT
  6
ByLayer
 62
  256
370
   -1
100
AcDbPolyline
 90
    2
 70
    0
 43
0
 10
91.05646
 20
67.86372
 10
90.2462
 20
67.86372
  0
LWPOLYLINE
  5
4D5
100
AcDbEntity
  8
PACKAGE_GEOMET_SILKSCREEN_BOTT
  6
ByLayer
 62
  256
370
   -1
100
AcDbPolyline
 90
    2
 70
    0
 43
0
 10
90.2462
 20
67.86372
 10
90.2462
 20
62.00394
  0
LWPOLYLINE
  5
4D6
100
AcDbEntity
  8
PACKAGE_GEOMET_SILKSCREEN_BOTT
  6
ByLayer
 62
  256
370
   -1
100
AcDbPolyline
 90
    2
 70
    0
 43
0
 10
91.55683999999999
 20
67.97548
 10
88.71711999999999
 20
67.97548
  0
LWPOLYLINE
  5
4D7
100
AcDbEntity
  8
PACKAGE_GEOMET_SILKSCREEN_BOTT
  6
ByLayer
 62
  256
370
   -1
100
AcDbPolyline
 90
    2
 70
    0
 43
0
 10
90.34780000000001
 20
64.92494000000001
 10
90.44686
 20
64.92494000000001
  0
LWPOLYLINE
  5
4D8
100
AcDbEntity
  8
PACKAGE_GEOMET_SILKSCREEN_BOTT
  6
ByLayer
 62
  256
370
   -1
100
AcDbPolyline
 90
    2
 70
    0
 43
0
 10
90.44686
 20
64.92494000000001
 10
90.53830000000001
 20
64.92494000000001
  0
LWPOLYLINE
  5
4D9
100
AcDbEntity
  8
PACKAGE_GEOMET_SILKSCREEN_BOTT
  6
ByLayer
 62
  256
370
   -1
100
AcDbPolyline
 90
    2
 70
    0
 43
0
 10
90.53830000000001
 20
64.92494000000001
 10
90.6272
 20
64.92494000000001
  0
LWPOLYLINE
  5
4DA
100
AcDbEntity
  8
PACKAGE_GEOMET_SILKSCREEN_BOTT
  6
ByLayer
 62
  256
370
   -1
100
AcDbPolyline
 90
    2
 70
    0
 43
0
 10
90.2462
 20
64.92494000000001
 10
90.34780000000001
 20
64.92494000000001
  0
LWPOLYLINE
  5
4DB
100
AcDbEntity
  8
PACKAGE_GEOMET_SILKSCREEN_BOTT
  6
ByLayer
 62
  256
370
   -1
100
AcDbPolyline
 90
    2
 70
    0
 43
0
 10
90.59672
 20
64.72427999999999
 10
90.2462
 20
64.72427999999999
  0
LWPOLYLINE
  5
4DC
100
AcDbEntity
  8
PACKAGE_GEOMET_SILKSCREEN_BOTT
  6
ByLayer
 62
  256
370
   -1
100
AcDbPolyline
 90
    2
 70
    0
 43
0
 10
89.92616
 20
63.32474
 10
89.92616
 20
62.12586
  0
LWPOLYLINE
  5
4DD
100
AcDbEntity
  8
PACKAGE_GEOMET_SILKSCREEN_BOTT
  6
ByLayer
 62
  256
370
   -1
100
AcDbPolyline
 90
    2
 70
    0
 43
0
 10
89.09811999999999
 20
62.12586
 10
89.09811999999999
 20
63.32474
  0
LWPOLYLINE
  5
4DE
100
AcDbEntity
  8
PACKAGE_GEOMET_SILKSCREEN_BOTT
  6
ByLayer
 62
  256
370
   -1
100
AcDbPolyline
 90
    2
 70
    0
 43
0
 10
90.2462
 20
63.32474
 10
88.87714
 20
63.32474
  0
LWPOLYLINE
  5
4DF
100
AcDbEntity
  8
PACKAGE_GEOMET_SILKSCREEN_BOTT
  6
ByLayer
 62
  256
370
   -1
100
AcDbPolyline
 90
    2
 70
    0
 43
0
 10
88.87714
 20
63.32474
 10
88.87714
 20
62.12586
  0
LWPOLYLINE
  5
4E0
100
AcDbEntity
  8
PACKAGE_GEOMET_SILKSCREEN_BOTT
  6
ByLayer
 62
  256
370
   -1
100
AcDbPolyline
 90
    2
 70
    0
 43
0
 10
88.87714
 20
62.12586
 10
90.2462
 20
62.12586
  0
LWPOLYLINE
  5
4E1
100
AcDbEntity
  8
PACKAGE_GEOMET_SILKSCREEN_BOTT
  6
ByLayer
 62
  256
370
   -1
100
AcDbPolyline
 90
    2
 70
    0
 43
0
 10
90.2462
 20
56.9341
 10
90.70847999999999
 20
56.9341
  0
LWPOLYLINE
  5
4E2
100
AcDbEntity
  8
PACKAGE_GEOMET_SILKSCREEN_BOTT
  6
ByLayer
 62
  256
370
   -1
100
AcDbPolyline
 90
    2
 70
    0
 43
0
 10
90.51797999999999
 20
51.23434
 10
90.51797999999999
 20
54.88432
  0
LWPOLYLINE
  5
4E3
100
AcDbEntity
  8
PACKAGE_GEOMET_SILKSCREEN_BOTT
  6
ByLayer
 62
  256
370
   -1
100
AcDbPolyline
 90
    2
 70
    0
 43
0
 10
90.31732
 20
54.88432
 10
91.05646
 20
54.88432
  0
LWPOLYLINE
  5
4E4
100
AcDbEntity
  8
PACKAGE_GEOMET_SILKSCREEN_BOTT
  6
ByLayer
 62
  256
370
   -1
100
AcDbPolyline
 90
    2
 70
    0
 43
0
 10
90.31732
 20
54.88432
 10
90.14713999999999
 20
53.594
  0
LWPOLYLINE
  5
4E5
100
AcDbEntity
  8
PACKAGE_GEOMET_SILKSCREEN_BOTT
  6
ByLayer
 62
  256
370
   -1
100
AcDbPolyline
 90
    2
 70
    0
 43
0
 10
89.8779
 20
54.94528
 10
89.70771999999999
 20
53.63464
  0
LWPOLYLINE
  5
4E6
100
AcDbEntity
  8
PACKAGE_GEOMET_SILKSCREEN_BOTT
  6
ByLayer
 62
  256
370
   -1
100
AcDbPolyline
 90
    2
 70
    0
 43
0
 10
90.31732
 20
54.88432
 10
89.0778
 20
55.0545
  0
LWPOLYLINE
  5
4E7
100
AcDbEntity
  8
PACKAGE_GEOMET_SILKSCREEN_BOTT
  6
ByLayer
 62
  256
370
   -1
100
AcDbPolyline
 90
    2
 70
    0
 43
0
 10
89.0778
 20
55.0545
 10
88.87714
 20
53.76418
  0
LWPOLYLINE
  5
4E8
100
AcDbEntity
  8
PACKAGE_GEOMET_SILKSCREEN_BOTT
  6
ByLayer
 62
  256
370
   -1
100
AcDbPolyline
 90
    2
 70
    0
 43
0
 10
88.30817999999999
 20
52.34432
 10
88.15832
 20
52.34432
  0
LWPOLYLINE
  5
4E9
100
AcDbEntity
  8
PACKAGE_GEOMET_SILKSCREEN_BOTT
  6
ByLayer
 62
  256
370
   -1
100
AcDbPolyline
 90
    2
 70
    0
 43
0
 10
88.15832
 20
52.34432
 10
88.15832
 20
51.3842
  0
LWPOLYLINE
  5
4EA
100
AcDbEntity
  8
PACKAGE_GEOMET_SILKSCREEN_BOTT
  6
ByLayer
 62
  256
370
   -1
100
AcDbPolyline
 90
    2
 70
    0
 43
0
 10
88.15832
 20
52.34432
 10
88.19642
 20
52.5653
  0
LWPOLYLINE
  5
4EB
100
AcDbEntity
  8
PACKAGE_GEOMET_SILKSCREEN_BOTT
  6
ByLayer
 62
  256
370
   -1
100
AcDbPolyline
 90
    2
 70
    0
 43
0
 10
88.19642
 20
52.5653
 10
88.32595999999999
 20
52.76342
  0
LWPOLYLINE
  5
4EC
100
AcDbEntity
  8
PACKAGE_GEOMET_SILKSCREEN_BOTT
  6
ByLayer
 62
  256
370
   -1
100
AcDbPolyline
 90
    2
 70
    0
 43
0
 10
88.15832
 20
51.3842
 10
88.30817999999999
 20
51.3842
  0
LWPOLYLINE
  5
4ED
100
AcDbEntity
  8
PACKAGE_GEOMET_SILKSCREEN_BOTT
  6
ByLayer
 62
  256
370
   -1
100
AcDbPolyline
 90
    2
 70
    0
 43
0
 10
88.32595999999999
 20
50.95494
 10
88.19642
 20
51.14544
  0
LWPOLYLINE
  5
4EE
100
AcDbEntity
  8
PACKAGE_GEOMET_SILKSCREEN_BOTT
  6
ByLayer
 62
  256
370
   -1
100
AcDbPolyline
 90
    2
 70
    0
 43
0
 10
88.19642
 20
51.14544
 10
88.15832
 20
51.3842
  0
LWPOLYLINE
  5
4EF
100
AcDbEntity
  8
PACKAGE_GEOMET_SILKSCREEN_BOTT
  6
ByLayer
 62
  256
370
   -1
100
AcDbPolyline
 90
    2
 70
    0
 43
0
 10
90.35796000000001
 20
53.5559
 10
90.42654
 20
53.48478
  0
LWPOLYLINE
  5
4F0
100
AcDbEntity
  8
PACKAGE_GEOMET_SILKSCREEN_BOTT
  6
ByLayer
 62
  256
370
   -1
100
AcDbPolyline
 90
    2
 70
    0
 43
0
 10
90.42654
 20
53.48478
 10
90.44686
 20
53.39334
  0
LWPOLYLINE
  5
4F1
100
AcDbEntity
  8
PACKAGE_GEOMET_SILKSCREEN_BOTT
  6
ByLayer
 62
  256
370
   -1
100
AcDbPolyline
 90
    2
 70
    0
 43
0
 10
90.44686
 20
53.39334
 10
90.42654
 20
53.28412
  0
LWPOLYLINE
  5
4F2
100
AcDbEntity
  8
PACKAGE_GEOMET_SILKSCREEN_BOTT
  6
ByLayer
 62
  256
370
   -1
100
AcDbPolyline
 90
    2
 70
    0
 43
0
 10
90.42654
 20
53.28412
 10
90.35796000000001
 20
53.2257
  0
LWPOLYLINE
  5
4F3
100
AcDbEntity
  8
PACKAGE_GEOMET_SILKSCREEN_BOTT
  6
ByLayer
 62
  256
370
   -1
100
AcDbPolyline
 90
    2
 70
    0
 43
0
 10
88.30817999999999
 20
52.34432
 10
88.32595999999999
 20
52.52466
  0
LWPOLYLINE
  5
4F4
100
AcDbEntity
  8
PACKAGE_GEOMET_SILKSCREEN_BOTT
  6
ByLayer
 62
  256
370
   -1
100
AcDbPolyline
 90
    2
 70
    0
 43
0
 10
88.32595999999999
 20
52.52466
 10
88.43772
 20
52.6542
  0
LWPOLYLINE
  5
4F5
100
AcDbEntity
  8
PACKAGE_GEOMET_SILKSCREEN_BOTT
  6
ByLayer
 62
  256
370
   -1
100
AcDbPolyline
 90
    2
 70
    0
 43
0
 10
88.43772
 20
52.6542
 10
88.56726
 20
52.76342
  0
LWPOLYLINE
  5
4F6
100
AcDbEntity
  8
PACKAGE_GEOMET_SILKSCREEN_BOTT
  6
ByLayer
 62
  256
370
   -1
100
AcDbPolyline
 90
    2
 70
    0
 43
0
 10
88.30817999999999
 20
52.34432
 10
88.30817999999999
 20
51.3842
  0
LWPOLYLINE
  5
4F7
100
AcDbEntity
  8
PACKAGE_GEOMET_SILKSCREEN_BOTT
  6
ByLayer
 62
  256
370
   -1
100
AcDbPolyline
 90
    2
 70
    0
 43
0
 10
89.46642
 20
53.1749
 10
88.56726
 20
52.76342
  0
LWPOLYLINE
  5
4F8
100
AcDbEntity
  8
PACKAGE_GEOMET_SILKSCREEN_BOTT
  6
ByLayer
 62
  256
370
   -1
100
AcDbPolyline
 90
    2
 70
    0
 43
0
 10
90.14713999999999
 20
53.594
 10
90.2462
 20
53.594
  0
LWPOLYLINE
  5
4F9
100
AcDbEntity
  8
PACKAGE_GEOMET_SILKSCREEN_BOTT
  6
ByLayer
 62
  256
370
   -1
100
AcDbPolyline
 90
    2
 70
    0
 43
0
 10
90.2462
 20
53.594
 10
90.35796000000001
 20
53.5559
  0
LWPOLYLINE
  5
4FA
100
AcDbEntity
  8
PACKAGE_GEOMET_SILKSCREEN_BOTT
  6
ByLayer
 62
  256
370
   -1
100
AcDbPolyline
 90
    2
 70
    0
 43
0
 10
90.35796000000001
 20
53.2257
 10
90.2462
 20
53.1749
  0
LWPOLYLINE
  5
4FB
100
AcDbEntity
  8
PACKAGE_GEOMET_SILKSCREEN_BOTT
  6
ByLayer
 62
  256
370
   -1
100
AcDbPolyline
 90
    2
 70
    0
 43
0
 10
88.5063
 20
52.8955
 10
88.56726
 20
52.76342
  0
LWPOLYLINE
  5
4FC
100
AcDbEntity
  8
PACKAGE_GEOMET_SILKSCREEN_BOTT
  6
ByLayer
 62
  256
370
   -1
100
AcDbPolyline
 90
    2
 70
    0
 43
0
 10
88.32595999999999
 20
52.76342
 10
88.5063
 20
52.8955
  0
LWPOLYLINE
  5
4FD
100
AcDbEntity
  8
PACKAGE_GEOMET_SILKSCREEN_BOTT
  6
ByLayer
 62
  256
370
   -1
100
AcDbPolyline
 90
    2
 70
    0
 43
0
 10
88.5063
 20
52.8955
 10
89.04732
 20
53.15458
  0
LWPOLYLINE
  5
4FE
100
AcDbEntity
  8
PACKAGE_GEOMET_SILKSCREEN_BOTT
  6
ByLayer
 62
  256
370
   -1
100
AcDbPolyline
 90
    2
 70
    0
 43
0
 10
90.2462
 20
53.1749
 10
89.18702
 20
53.1749
  0
LWPOLYLINE
  5
4FF
100
AcDbEntity
  8
PACKAGE_GEOMET_SILKSCREEN_BOTT
  6
ByLayer
 62
  256
370
   -1
100
AcDbPolyline
 90
    2
 70
    0
 43
0
 10
89.18702
 20
53.1749
 10
89.04732
 20
53.15458
  0
LWPOLYLINE
  5
500
100
AcDbEntity
  8
PACKAGE_GEOMET_SILKSCREEN_BOTT
  6
ByLayer
 62
  256
370
   -1
100
AcDbPolyline
 90
    2
 70
    0
 43
0
 10
88.87714
 20
53.76418
 10
90.14713999999999
 20
53.594
  0
LWPOLYLINE
  5
501
100
AcDbEntity
  8
PACKAGE_GEOMET_SILKSCREEN_BOTT
  6
ByLayer
 62
  256
370
   -1
100
AcDbPolyline
 90
    2
 70
    0
 43
0
 10
88.65616
 20
53.33492
 10
89.00668
 20
53.33492
  0
LWPOLYLINE
  5
502
100
AcDbEntity
  8
PACKAGE_GEOMET_SILKSCREEN_BOTT
  6
ByLayer
 62
  256
370
   -1
100
AcDbPolyline
 90
    2
 70
    0
 43
0
 10
89.00668
 20
53.33492
 10
89.00668
 20
53.13426
  0
LWPOLYLINE
  5
503
100
AcDbEntity
  8
PACKAGE_GEOMET_SILKSCREEN_BOTT
  6
ByLayer
 62
  256
370
   -1
100
AcDbPolyline
 90
    2
 70
    0
 43
0
 10
88.65616
 20
52.96408
 10
88.65616
 20
53.33492
  0
LWPOLYLINE
  5
504
100
AcDbEntity
  8
PACKAGE_GEOMET_SILKSCREEN_BOTT
  6
ByLayer
 62
  256
370
   -1
100
AcDbPolyline
 90
    2
 70
    0
 43
0
 10
90.42654
 20
51.12512
 10
90.51797999999999
 20
51.23434
  0
LWPOLYLINE
  5
505
100
AcDbEntity
  8
PACKAGE_GEOMET_SILKSCREEN_BOTT
  6
ByLayer
 62
  256
370
   -1
100
AcDbPolyline
 90
    2
 70
    0
 43
0
 10
90.51797999999999
 20
51.23434
 10
90.57640000000001
 20
51.28514
  0
LWPOLYLINE
  5
506
100
AcDbEntity
  8
PACKAGE_GEOMET_SILKSCREEN_BOTT
  6
ByLayer
 62
  256
370
   -1
100
AcDbPolyline
 90
    2
 70
    0
 43
0
 10
88.43772
 20
51.06416
 10
88.32595999999999
 20
51.21402
  0
LWPOLYLINE
  5
507
100
AcDbEntity
  8
PACKAGE_GEOMET_SILKSCREEN_BOTT
  6
ByLayer
 62
  256
370
   -1
100
AcDbPolyline
 90
    2
 70
    0
 43
0
 10
88.32595999999999
 20
51.21402
 10
88.30817999999999
 20
51.3842
  0
LWPOLYLINE
  5
508
100
AcDbEntity
  8
PACKAGE_GEOMET_SILKSCREEN_BOTT
  6
ByLayer
 62
  256
370
   -1
100
AcDbPolyline
 90
    2
 70
    0
 43
0
 10
88.43772
 20
51.06416
 10
88.8365
 20
50.69586
  0
LWPOLYLINE
  5
509
100
AcDbEntity
  8
PACKAGE_GEOMET_SILKSCREEN_BOTT
  6
ByLayer
 62
  256
370
   -1
100
AcDbPolyline
 90
    2
 70
    0
 43
0
 10
90.16746000000001
 20
50.64506
 10
90.42654
 20
51.12512
  0
LWPOLYLINE
  5
50A
100
AcDbEntity
  8
PACKAGE_GEOMET_SILKSCREEN_BOTT
  6
ByLayer
 62
  256
370
   -1
100
AcDbPolyline
 90
    2
 70
    0
 43
0
 10
88.43772
 20
51.06416
 10
88.32595999999999
 20
50.95494
  0
LWPOLYLINE
  5
50B
100
AcDbEntity
  8
PACKAGE_GEOMET_SILKSCREEN_BOTT
  6
ByLayer
 62
  256
370
   -1
100
AcDbPolyline
 90
    2
 70
    0
 43
0
 10
88.8365
 20
50.69586
 10
88.91777999999999
 20
50.64506
  0
LWPOLYLINE
  5
50C
100
AcDbEntity
  8
PACKAGE_GEOMET_SILKSCREEN_BOTT
  6
ByLayer
 62
  256
370
   -1
100
AcDbPolyline
 90
    2
 70
    0
 43
0
 10
88.91777999999999
 20
50.64506
 10
90.16746000000001
 20
50.64506
  0
LWPOLYLINE
  5
50D
100
AcDbEntity
  8
PACKAGE_GEOMET_SILKSCREEN_BOTT
  6
ByLayer
 62
  256
370
   -1
100
AcDbPolyline
 90
    2
 70
    0
 43
0
 10
88.8365
 20
50.69586
 10
88.72727999999999
 20
50.5841
  0
LWPOLYLINE
  5
50E
100
AcDbEntity
  8
PACKAGE_GEOMET_SILKSCREEN_BOTT
  6
ByLayer
 62
  256
370
   -1
100
AcDbPolyline
 90
    2
 70
    0
 43
0
 10
88.72727999999999
 20
50.5841
 10
88.91777999999999
 20
50.4952
  0
LWPOLYLINE
  5
50F
100
AcDbEntity
  8
PACKAGE_GEOMET_SILKSCREEN_BOTT
  6
ByLayer
 62
  256
370
   -1
100
AcDbPolyline
 90
    2
 70
    0
 43
0
 10
88.91777999999999
 20
50.4952
 10
88.91777999999999
 20
50.64506
  0
LWPOLYLINE
  5
510
100
AcDbEntity
  8
PACKAGE_GEOMET_SILKSCREEN_BOTT
  6
ByLayer
 62
  256
370
   -1
100
AcDbPolyline
 90
    2
 70
    0
 43
0
 10
88.32595999999999
 20
50.95494
 10
88.72727999999999
 20
50.5841
  0
LWPOLYLINE
  5
511
100
AcDbEntity
  8
PACKAGE_GEOMET_SILKSCREEN_BOTT
  6
ByLayer
 62
  256
370
   -1
100
AcDbPolyline
 90
    2
 70
    0
 43
0
 10
89.90584
 20
50.4952
 10
88.91777999999999
 20
50.4952
  0
LWPOLYLINE
  5
512
100
AcDbEntity
  8
PACKAGE_GEOMET_SILKSCREEN_BOTT
  6
ByLayer
 62
  256
370
   -1
100
AcDbPolyline
 90
    2
 70
    0
 43
0
 10
90.16746000000001
 20
50.64506
 10
90.05824
 20
50.5333
  0
LWPOLYLINE
  5
513
100
AcDbEntity
  8
PACKAGE_GEOMET_SILKSCREEN_BOTT
  6
ByLayer
 62
  256
370
   -1
100
AcDbPolyline
 90
    2
 70
    0
 43
0
 10
90.05824
 20
50.5333
 10
89.90584
 20
50.4952
  0
LWPOLYLINE
  5
514
100
AcDbEntity
  8
PACKAGE_GEOMET_SILKSCREEN_BOTT
  6
ByLayer
 62
  256
370
   -1
100
AcDbPolyline
 90
    2
 70
    0
 43
0
 10
90.70847999999999
 20
75.44562000000001
 10
91.05646
 20
75.44562000000001
  0
LWPOLYLINE
  5
515
100
AcDbEntity
  8
PACKAGE_GEOMET_SILKSCREEN_BOTT
  6
ByLayer
 62
  256
370
   -1
100
AcDbPolyline
 90
    2
 70
    0
 43
0
 10
90.70847999999999
 20
75.3745
 10
91.05646
 20
75.3745
  0
LWPOLYLINE
  5
516
100
AcDbEntity
  8
PACKAGE_GEOMET_SILKSCREEN_BOTT
  6
ByLayer
 62
  256
370
   -1
100
AcDbPolyline
 90
    2
 70
    0
 43
0
 10
90.70847999999999
 20
75.48372000000001
 10
91.05646
 20
75.48372000000001
  0
LWPOLYLINE
  5
517
100
AcDbEntity
  8
PACKAGE_GEOMET_SILKSCREEN_BOTT
  6
ByLayer
 62
  256
370
   -1
100
AcDbPolyline
 90
    2
 70
    0
 43
0
 10
91.05646
 20
75.48372000000001
 10
91.05646
 20
75.184
  0
LWPOLYLINE
  5
518
100
AcDbEntity
  8
PACKAGE_GEOMET_SILKSCREEN_BOTT
  6
ByLayer
 62
  256
370
   -1
100
AcDbPolyline
 90
    2
 70
    0
 43
0
 10
90.70847999999999
 20
75.48372000000001
 10
90.70847999999999
 20
75.184
  0
LWPOLYLINE
  5
519
100
AcDbEntity
  8
PACKAGE_GEOMET_SILKSCREEN_BOTT
  6
ByLayer
 62
  256
370
   -1
100
AcDbPolyline
 90
    2
 70
    0
 43
0
 10
91.55683999999999
 20
67.97548
 10
91.55683999999999
 20
75.184
  0
LWPOLYLINE
  5
51A
100
AcDbEntity
  8
PACKAGE_GEOMET_SILKSCREEN_BOTT
  6
ByLayer
 62
  256
370
   -1
100
AcDbPolyline
 90
    2
 70
    0
 43
0
 10
91.10726
 20
67.71386
 10
91.05646
 20
67.8053
  0
LWPOLYLINE
  5
51B
100
AcDbEntity
  8
PACKAGE_GEOMET_SILKSCREEN_BOTT
  6
ByLayer
 62
  256
370
   -1
100
AcDbPolyline
 90
    2
 70
    0
 43
0
 10
91.10726
 20
67.71386
 10
91.14790000000001
 20
67.65544
  0
LWPOLYLINE
  5
51C
100
AcDbEntity
  8
PACKAGE_GEOMET_SILKSCREEN_BOTT
  6
ByLayer
 62
  256
370
   -1
100
AcDbPolyline
 90
    2
 70
    0
 43
0
 10
91.05646
 20
67.97548
 10
91.05646
 20
51.28514
  0
LWPOLYLINE
  5
51D
100
AcDbEntity
  8
PACKAGE_GEOMET_SILKSCREEN_BOTT
  6
ByLayer
 62
  256
370
   -1
100
AcDbPolyline
 90
    2
 70
    0
 43
0
 10
90.70847999999999
 20
67.97548
 10
90.70847999999999
 20
67.86372
  0
LWPOLYLINE
  5
51E
100
AcDbEntity
  8
PACKAGE_GEOMET_SILKSCREEN_BOTT
  6
ByLayer
 62
  256
370
   -1
100
AcDbPolyline
 90
    2
 70
    0
 43
0
 10
91.14790000000001
 20
67.65544
 10
91.14790000000001
 20
59.44362
  0
LWPOLYLINE
  5
51F
100
AcDbEntity
  8
PACKAGE_GEOMET_SILKSCREEN_BOTT
  6
ByLayer
 62
  256
370
   -1
100
AcDbPolyline
 90
    2
 70
    0
 43
0
 10
91.10726
 20
59.35472
 10
91.10726
 20
67.71386
  0
LWPOLYLINE
  5
520
100
AcDbEntity
  8
PACKAGE_GEOMET_SILKSCREEN_BOTT
  6
ByLayer
 62
  256
370
   -1
100
AcDbPolyline
 90
    2
 70
    0
 43
0
 10
90.6272
 20
64.92494000000001
 10
90.68816
 20
64.92494000000001
  0
LWPOLYLINE
  5
521
100
AcDbEntity
  8
PACKAGE_GEOMET_SILKSCREEN_BOTT
  6
ByLayer
 62
  256
370
   -1
100
AcDbPolyline
 90
    2
 70
    0
 43
0
 10
90.59672
 20
56.9341
 10
90.59672
 20
57.16524
  0
LWPOLYLINE
  5
522
100
AcDbEntity
  8
PACKAGE_GEOMET_SILKSCREEN_BOTT
  6
ByLayer
 62
  256
370
   -1
100
AcDbPolyline
 90
    2
 70
    0
 43
0
 10
91.14790000000001
 20
67.45478
 10
91.05646
 20
67.45478
  0
LWPOLYLINE
  5
523
100
AcDbEntity
  8
PACKAGE_GEOMET_SILKSCREEN_BOTT
  6
ByLayer
 62
  256
370
   -1
100
AcDbPolyline
 90
    2
 70
    0
 43
0
 10
90.70847999999999
 20
64.90461999999999
 10
91.05646
 20
64.90461999999999
  0
LWPOLYLINE
  5
524
100
AcDbEntity
  8
PACKAGE_GEOMET_SILKSCREEN_BOTT
  6
ByLayer
 62
  256
370
   -1
100
AcDbPolyline
 90
    2
 70
    0
 43
0
 10
90.68816
 20
64.92494000000001
 10
90.76690000000001
 20
64.92494000000001
  0
LWPOLYLINE
  5
525
100
AcDbEntity
  8
PACKAGE_GEOMET_SILKSCREEN_BOTT
  6
ByLayer
 62
  256
370
   -1
100
AcDbPolyline
 90
    2
 70
    0
 43
0
 10
90.76690000000001
 20
64.92494000000001
 10
90.8177
 20
64.92494000000001
  0
LWPOLYLINE
  5
526
100
AcDbEntity
  8
PACKAGE_GEOMET_SILKSCREEN_BOTT
  6
ByLayer
 62
  256
370
   -1
100
AcDbPolyline
 90
    2
 70
    0
 43
0
 10
90.8177
 20
64.92494000000001
 10
90.88628
 20
64.92494000000001
  0
LWPOLYLINE
  5
527
100
AcDbEntity
  8
PACKAGE_GEOMET_SILKSCREEN_BOTT
  6
ByLayer
 62
  256
370
   -1
100
AcDbPolyline
 90
    2
 70
    0
 43
0
 10
90.88628
 20
64.92494000000001
 10
90.99804
 20
64.92494000000001
  0
LWPOLYLINE
  5
528
100
AcDbEntity
  8
PACKAGE_GEOMET_SILKSCREEN_BOTT
  6
ByLayer
 62
  256
370
   -1
100
AcDbPolyline
 90
    2
 70
    0
 43
0
 10
90.99804
 20
64.92494000000001
 10
91.01836
 20
64.90461999999999
  0
LWPOLYLINE
  5
529
100
AcDbEntity
  8
PACKAGE_GEOMET_SILKSCREEN_BOTT
  6
ByLayer
 62
  256
370
   -1
100
AcDbPolyline
 90
    2
 70
    0
 43
0
 10
91.01836
 20
64.90461999999999
 10
91.05646
 20
64.90461999999999
  0
LWPOLYLINE
  5
52A
100
AcDbEntity
  8
PACKAGE_GEOMET_SILKSCREEN_BOTT
  6
ByLayer
 62
  256
370
   -1
100
AcDbPolyline
 90
    2
 70
    0
 43
0
 10
90.70847999999999
 20
64.90461999999999
 10
90.70847999999999
 20
54.88432
  0
LWPOLYLINE
  5
52B
100
AcDbEntity
  8
PACKAGE_GEOMET_SILKSCREEN_BOTT
  6
ByLayer
 62
  256
370
   -1
100
AcDbPolyline
 90
    2
 70
    0
 43
0
 10
90.70847999999999
 20
64.52361999999999
 10
91.05646
 20
64.52361999999999
  0
LWPOLYLINE
  5
52C
100
AcDbEntity
  8
PACKAGE_GEOMET_SILKSCREEN_BOTT
  6
ByLayer
 62
  256
370
   -1
100
AcDbPolyline
 90
    2
 70
    0
 43
0
 10
91.05646
 20
59.26582
 10
91.10726
 20
59.35472
  0
LWPOLYLINE
  5
52D
100
AcDbEntity
  8
PACKAGE_GEOMET_SILKSCREEN_BOTT
  6
ByLayer
 62
  256
370
   -1
100
AcDbPolyline
 90
    2
 70
    0
 43
0
 10
91.14790000000001
 20
59.44362
 10
91.10726
 20
59.35472
  0
LWPOLYLINE
  5
52E
100
AcDbEntity
  8
PACKAGE_GEOMET_SILKSCREEN_BOTT
  6
ByLayer
 62
  256
370
   -1
100
AcDbPolyline
 90
    2
 70
    0
 43
0
 10
91.14790000000001
 20
59.64428
 10
91.05646
 20
59.64428
  0
LWPOLYLINE
  5
52F
100
AcDbEntity
  8
PACKAGE_GEOMET_SILKSCREEN_BOTT
  6
ByLayer
 62
  256
370
   -1
100
AcDbPolyline
 90
    2
 70
    0
 43
0
 10
92.65666
 20
56.9341
 10
91.05646
 20
56.9341
  0
LWPOLYLINE
  5
530
100
AcDbEntity
  8
PACKAGE_GEOMET_SILKSCREEN_BOTT
  6
ByLayer
 62
  256
370
   -1
100
AcDbPolyline
 90
    2
 70
    0
 43
0
 10
92.65666
 20
58.43524
 10
91.05646
 20
58.43524
  0
LWPOLYLINE
  5
531
100
AcDbEntity
  8
PACKAGE_GEOMET_SILKSCREEN_BOTT
  6
ByLayer
 62
  256
370
   -1
100
AcDbPolyline
 90
    2
 70
    0
 43
0
 10
92.10802
 20
58.43524
 10
92.10802
 20
56.9341
  0
LWPOLYLINE
  5
532
100
AcDbEntity
  8
PACKAGE_GEOMET_SILKSCREEN_BOTT
  6
ByLayer
 62
  256
370
   -1
100
AcDbPolyline
 90
    2
 70
    0
 43
0
 10
92.30614
 20
58.43524
 10
92.30614
 20
56.9341
  0
LWPOLYLINE
  5
533
100
AcDbEntity
  8
PACKAGE_GEOMET_SILKSCREEN_BOTT
  6
ByLayer
 62
  256
370
   -1
100
AcDbPolyline
 90
    2
 70
    0
 43
0
 10
90.70847999999999
 20
56.21528
 10
91.05646
 20
56.21528
  0
LWPOLYLINE
  5
534
100
AcDbEntity
  8
PACKAGE_GEOMET_SILKSCREEN_BOTT
  6
ByLayer
 62
  256
370
   -1
100
AcDbPolyline
 90
    2
 70
    0
 43
0
 10
91.05646
 20
55.9943
 10
90.70847999999999
 20
55.9943
  0
LWPOLYLINE
  5
535
100
AcDbEntity
  8
PACKAGE_GEOMET_SILKSCREEN_BOTT
  6
ByLayer
 62
  256
370
   -1
100
AcDbPolyline
 90
    2
 70
    0
 43
0
 10
90.70847999999999
 20
55.82412
 10
91.05646
 20
55.82412
  0
LWPOLYLINE
  5
536
100
AcDbEntity
  8
PACKAGE_GEOMET_SILKSCREEN_BOTT
  6
ByLayer
 62
  256
370
   -1
100
AcDbPolyline
 90
    2
 70
    0
 43
0
 10
91.05646
 20
55.60568
 10
90.70847999999999
 20
55.60568
  0
LWPOLYLINE
  5
537
100
AcDbEntity
  8
PACKAGE_GEOMET_SILKSCREEN_BOTT
  6
ByLayer
 62
  256
370
   -1
100
AcDbPolyline
 90
    2
 70
    0
 43
0
 10
92.65666
 20
56.9341
 10
92.65666
 20
58.43524
  0
LWPOLYLINE
  5
538
100
AcDbEntity
  8
PACKAGE_GEOMET_SILKSCREEN_BOTT
  6
ByLayer
 62
  256
370
   -1
100
AcDbPolyline
 90
    2
 70
    0
 43
0
 10
90.70847999999999
 20
55.18404
 10
91.05646
 20
55.18404
  0
LWPOLYLINE
  5
539
100
AcDbEntity
  8
PACKAGE_GEOMET_SILKSCREEN_BOTT
  6
ByLayer
 62
  256
370
   -1
100
AcDbPolyline
 90
    2
 70
    0
 43
0
 10
90.57640000000001
 20
51.28514
 10
90.68816
 20
51.28514
  0
LWPOLYLINE
  5
53A
100
AcDbEntity
  8
PACKAGE_GEOMET_SILKSCREEN_BOTT
  6
ByLayer
 62
  256
370
   -1
100
AcDbPolyline
 90
    2
 70
    0
 43
0
 10
91.05646
 20
51.28514
 10
90.68816
 20
51.28514
  0
LWPOLYLINE
  5
53B
100
AcDbEntity
  8
PACKAGE_GEOMET_SILKSCREEN_BOTT
  6
ByLayer
 62
  256
370
   -1
100
AcDbPolyline
 90
    2
 70
    0
 43
0
 10
89.86774
 20
41.57472
 10
20.26666
 20
41.57472
  0
LWPOLYLINE
  5
53C
100
AcDbEntity
  8
BOARD_GEOMETRY_OUTLINE
  6
ByLayer
 62
  256
370
   -1
100
AcDbPolyline
 90
    9
 70
    1
 43
0
 10
-3.81
 20
-15.748
 10
-3.81
 20
90.188034
 42
-0.4142140000000009
 10
-1.778
 20
92.220034
 10
104.158034
 20
92.220034
 42
-0.4142140000000011
 10
106.190034
 20
90.188034
 10
106.190034
 20
-15.748
 42
-0.4142140000000006
 10
104.158034
 20
-17.78
 10
-1.778000000000001
 20
-17.78
 42
-0.4142139999999996
 10
-3.81
 20
-15.748
  0
ENDSEC
  0
SECTION
  2
OBJECTS
  0
DICTIONARY
  5
C
330
0
100
AcDbDictionary
281
    1
  3
ACAD_GROUP
350
D
  0
DICTIONARY
  5
D
330
C
100
AcDbDictionary
281
    1
  0
ENDSEC
  0
EOF
