  0
SECTION
  2
HEADER
  9
$ACADVER
  1
AC1014
  9
$ACADMAINTVER
 70
     9
  9
$DWGCODEPAGE
  3
ANSI_949
  9
$INSBASE
 10
0.0
 20
0.0
 30
0.0
  9
$EXTMIN
 10
1.000000000000000E+20
 20
1.000000000000000E+20
 30
1.000000000000000E+20
  9
$EXTMAX
 10
-1.000000000000000E+20
 20
-1.000000000000000E+20
 30
-1.000000000000000E+20
  9
$LIMMIN
 10
0.0
 20
0.0
  9
$LIMMAX
 10
12.0
 20
9.0
  9
$ORTHOMODE
 70
     0
  9
$REGENMODE
 70
     1
  9
$FILLMODE
 70
     1
  9
$QTEXTMODE
 70
     0
  9
$MIRRTEXT
 70
     1
  9
$DRAGMODE
 70
     2
  9
$LTSCALE
 40
1.0
  9
$OSMODE
 70
    37
  9
$ATTMODE
 70
     1
  9
$TEXTSIZE
 40
0.2
  9
$TRACEWID
 40
0.05
  9
$TEXTSTYLE
  7
STANDARD
  9
$CLAYER
  8
0
  9
$CELTYPE
  6
BYLAYER
  9
$CECOLOR
 62
   256
  9
$CELTSCALE
 40
1.0
  9
$DELOBJ
 70
     1
  9
$DISPSILH
 70
     0
  9
$DIMSCALE
 40
1.0
  9
$DIMASZ
 40
0.18
  9
$DIMEXO
 40
0.0625
  9
$DIMDLI
 40
0.38
  9
$DIMRND
 40
0.0
  9
$DIMDLE
 40
0.0
  9
$DIMEXE
 40
0.18
  9
$DIMTP
 40
0.0
  9
$DIMTM
 40
0.0
  9
$DIMTXT
 40
0.18
  9
$DIMCEN
 40
0.09
  9
$DIMTSZ
 40
0.0
  9
$DIMTOL
 70
     0
  9
$DIMLIM
 70
     0
  9
$DIMTIH
 70
     1
  9
$DIMTOH
 70
     1
  9
$DIMSE1
 70
     0
  9
$DIMSE2
 70
     0
  9
$DIMTAD
 70
     0
  9
$DIMZIN
 70
     0
  9
$DIMBLK
  1

  9
$DIMASO
 70
     1
  9
$DIMSHO
 70
     1
  9
$DIMPOST
  1

  9
$DIMAPOST
  1

  9
$DIMALT
 70
     0
  9
$DIMALTD
 70
     2
  9
$DIMALTF
 40
25.4
  9
$DIMLFAC
 40
1.0
  9
$DIMTOFL
 70
     0
  9
$DIMTVP
 40
0.0
  9
$DIMTIX
 70
     0
  9
$DIMSOXD
 70
     0
  9
$DIMSAH
 70
     0
  9
$DIMBLK1
  1

  9
$DIMBLK2
  1

  9
$DIMSTYLE
  2
STANDARD
  9
$DIMCLRD
 70
     0
  9
$DIMCLRE
 70
     0
  9
$DIMCLRT
 70
     0
  9
$DIMTFAC
 40
1.0
  9
$DIMGAP
 40
0.09
  9
$DIMJUST
 70
     0
  9
$DIMSD1
 70
     0
  9
$DIMSD2
 70
     0
  9
$DIMTOLJ
 70
     1
  9
$DIMTZIN
 70
     0
  9
$DIMALTZ
 70
     0
  9
$DIMALTTZ
 70
     0
  9
$DIMFIT
 70
     3
  9
$DIMUPT
 70
     0
  9
$DIMUNIT
 70
     2
  9
$DIMDEC
 70
     4
  9
$DIMTDEC
 70
     4
  9
$DIMALTU
 70
     2
  9
$DIMALTTD
 70
     2
  9
$DIMTXSTY
  7
STANDARD
  9
$DIMAUNIT
 70
     0
  9
$LUNITS
 70
     2
  9
$LUPREC
 70
     4
  9
$SKETCHINC
 40
0.1
  9
$FILLETRAD
 40
0.5
  9
$AUNITS
 70
     0
  9
$AUPREC
 70
     0
  9
$MENU
  1
.
  9
$ELEVATION
 40
0.0
  9
$PELEVATION
 40
0.0
  9
$THICKNESS
 40
0.0
  9
$LIMCHECK
 70
     0
  9
$CHAMFERA
 40
0.0
  9
$CHAMFERB
 40
0.0
  9
$CHAMFERC
 40
0.0
  9
$CHAMFERD
 40
0.0
  9
$SKPOLY
 70
     0
  9
$TDCREATE
 40
2458647.343970879
  9
$TDUPDATE
 40
2458647.343971308
  9
$TDINDWG
 40
0.0000000116
  9
$TDUSRTIMER
 40
0.0000000116
  9
$USRTIMER
 70
     1
  9
$ANGBASE
 50
0.0
  9
$ANGDIR
 70
     0
  9
$PDMODE
 70
     0
  9
$PDSIZE
 40
0.0
  9
$PLINEWID
 40
0.0
  9
$COORDS
 70
     1
  9
$SPLFRAME
 70
     0
  9
$SPLINETYPE
 70
     6
  9
$SPLINESEGS
 70
     8
  9
$ATTDIA
 70
     0
  9
$ATTREQ
 70
     1
  9
$HANDLING
 70
     1
  9
$HANDSEED
  5
209
  9
$SURFTAB1
 70
     6
  9
$SURFTAB2
 70
     6
  9
$SURFTYPE
 70
     6
  9
$SURFU
 70
     6
  9
$SURFV
 70
     6
  9
$UCSNAME
  2

  9
$UCSORG
 10
0.0
 20
0.0
 30
0.0
  9
$UCSXDIR
 10
1.0
 20
0.0
 30
0.0
  9
$UCSYDIR
 10
0.0
 20
1.0
 30
0.0
  9
$PUCSNAME
  2

  9
$PUCSORG
 10
0.0
 20
0.0
 30
0.0
  9
$PUCSXDIR
 10
1.0
 20
0.0
 30
0.0
  9
$PUCSYDIR
 10
0.0
 20
1.0
 30
0.0
  9
$USERI1
 70
     0
  9
$USERI2
 70
     0
  9
$USERI3
 70
     0
  9
$USERI4
 70
     0
  9
$USERI5
 70
     0
  9
$USERR1
 40
0.0
  9
$USERR2
 40
0.0
  9
$USERR3
 40
0.0
  9
$USERR4
 40
0.0
  9
$USERR5
 40
0.0
  9
$WORLDVIEW
 70
     1
  9
$SHADEDGE
 70
     3
  9
$SHADEDIF
 70
    70
  9
$TILEMODE
 70
     1
  9
$MAXACTVP
 70
    64
  9
$PINSBASE
 10
0.0
 20
0.0
 30
0.0
  9
$PLIMCHECK
 70
     0
  9
$PEXTMIN
 10
1.000000000000000E+20
 20
1.000000000000000E+20
 30
1.000000000000000E+20
  9
$PEXTMAX
 10
-1.000000000000000E+20
 20
-1.000000000000000E+20
 30
-1.000000000000000E+20
  9
$PLIMMIN
 10
0.0
 20
0.0
  9
$PLIMMAX
 10
12.0
 20
9.0
  9
$UNITMODE
 70
     0
  9
$VISRETAIN
 70
     1
  9
$PLINEGEN
 70
     0
  9
$PSLTSCALE
 70
     1
  9
$TREEDEPTH
 70
  3020
  9
$PICKSTYLE
 70
     1
  9
$CMLSTYLE
  2
STANDARD
  9
$CMLJUST
 70
     0
  9
$CMLSCALE
 40
1.0
  9
$PROXYGRAPHICS
 70
     1
  9
$MEASUREMENT
 70
     1
  0
ENDSEC
  0
SECTION
  2
CLASSES
  0
CLASS
  1
ACDBDICTIONARYWDFLT
  2
AcDbDictionaryWithDefault
  3
ObjectDBX Classes
 90
        0
280
     0
281
     0
  0
CLASS
  1
VISUALSTYLE
  2
AcDbVisualStyle
  3
ObjectDBX Classes
 90
     4095
280
     0
281
     0
  0
CLASS
  1
MATERIAL
  2
AcDbMaterial
  3
ObjectDBX Classes
 90
     1153
280
     0
281
     0
  0
CLASS
  1
SCALE
  2
AcDbScale
  3
ObjectDBX Classes
 90
     1153
280
     0
281
     0
  0
CLASS
  1
TABLESTYLE
  2
AcDbTableStyle
  3
ObjectDBX Classes
 90
     4095
280
     0
281
     0
  0
CLASS
  1
MLEADERSTYLE
  2
AcDbMLeaderStyle
  3
ACDB_MLEADERSTYLE_CLASS
 90
     4095
280
     0
281
     0
  0
CLASS
  1
SUN
  2
AcDbSun
  3
SCENEOE
 90
     1153
280
     0
281
     0
  0
CLASS
  1
DICTIONARYVAR
  2
AcDbDictionaryVar
  3
ObjectDBX Classes
 90
        0
280
     0
281
     0
  0
CLASS
  1
XRECORD
  2
AcDbXrecord
  3
ObjectDBX Classes
 90
        0
280
     0
281
     0
  0
CLASS
  1
LWPOLYLINE
  2
AcDbPolyline
  3
ObjectDBX Classes
 90
        0
280
     0
281
     1
  0
CLASS
  1
HATCH
  2
AcDbHatch
  3
ObjectDBX Classes
 90
        0
280
     0
281
     1
  0
CLASS
  1
ACDBPLACEHOLDER
  2
AcDbPlaceHolder
  3
ObjectDBX Classes
 90
        0
280
     0
281
     0
  0
CLASS
  1
LAYOUT
  2
AcDbLayout
  3
ObjectDBX Classes
 90
        0
280
     0
281
     0
  0
ENDSEC
  0
SECTION
  2
TABLES
  0
TABLE
  2
VPORT
  5
8
102
{ACAD_XDICTIONARY
360
1FE
102
}
330
0
100
AcDbSymbolTable
 70
     1
  0
VPORT
  5
29
330
8
100
AcDbSymbolTableRecord
100
AcDbViewportTableRecord
  2
*ACTIVE
 70
     0
 10
0.0
 20
0.0
 11
1.0
 21
1.0
 12
0.0
 22
0.0
 13
0.0
 23
0.0
 14
0.5
 24
0.5
 15
0.5
 25
0.5
 16
0.0
 26
0.0
 36
1.0
 17
0.0
 27
0.0
 37
-1000.0
 40
243.5734059212281
 41
1.613236814891417
 42
50.0
 43
136.4613800946964
 44
198.0411128775843
 50
0.0
 51
0.0
 71
     0
 72
   100
 73
     1
 74
     3
 75
     0
 76
     0
 77
     0
 78
     0
  0
ENDTAB
  0
TABLE
  2
LTYPE
  5
5
330
0
100
AcDbSymbolTable
 70
     1
  0
LTYPE
  5
14
330
5
100
AcDbSymbolTableRecord
100
AcDbLinetypeTableRecord
  2
BYBLOCK
 70
     0
  3

 72
    65
 73
     0
 40
0.0
  0
LTYPE
  5
15
330
5
100
AcDbSymbolTableRecord
100
AcDbLinetypeTableRecord
  2
BYLAYER
 70
     0
  3

 72
    65
 73
     0
 40
0.0
  0
LTYPE
  5
16
330
5
100
AcDbSymbolTableRecord
100
AcDbLinetypeTableRecord
  2
CONTINUOUS
 70
     0
  3
Solid line
 72
    65
 73
     0
 40
0.0
  0
ENDTAB
  0
TABLE
  2
LAYER
  5
2
330
0
100
AcDbSymbolTable
 70
     3
  0
LAYER
  5
10
330
2
100
AcDbSymbolTableRecord
100
AcDbLayerTableRecord
  2
0
 70
     0
 62
     7
  6
CONTINUOUS
  0
LAYER
  5
6E
330
2
100
AcDbSymbolTableRecord
100
AcDbLayerTableRecord
  2
PROFILEEDGES
 70
     0
 62
     7
  6
CONTINUOUS
  0
LAYER
  5
6F
330
2
100
AcDbSymbolTableRecord
100
AcDbLayerTableRecord
  2
SECTIONCUTEDGES
 70
     0
 62
     7
  6
CONTINUOUS
  0
ENDTAB
  0
TABLE
  2
STYLE
  5
3
330
0
100
AcDbSymbolTable
 70
     1
  0
STYLE
  5
11
330
3
100
AcDbSymbolTableRecord
100
AcDbTextStyleTableRecord
  2
STANDARD
 70
     0
 40
0.0
 41
1.0
 50
0.0
 71
     0
 42
0.2
  3
txt
  4

  0
ENDTAB
  0
TABLE
  2
VIEW
  5
6
330
0
100
AcDbSymbolTable
 70
     0
  0
ENDTAB
  0
TABLE
  2
UCS
  5
7
330
0
100
AcDbSymbolTable
 70
     0
  0
ENDTAB
  0
TABLE
  2
APPID
  5
9
330
0
100
AcDbSymbolTable
 70
     2
  0
APPID
  5
12
330
9
100
AcDbSymbolTableRecord
100
AcDbRegAppTableRecord
  2
ACAD
 70
     0
  0
APPID
  5
208
330
9
100
AcDbSymbolTableRecord
100
AcDbRegAppTableRecord
  2
ACAD_MLEADERVER
 70
     0
  0
ENDTAB
  0
TABLE
  2
DIMSTYLE
  5
A
330
0
100
AcDbSymbolTable
 70
     1
  0
DIMSTYLE
105
27
330
A
100
AcDbSymbolTableRecord
100
AcDbDimStyleTableRecord
  2
STANDARD
 70
     0
  3

  4

  5

  6

  7

 40
1.0
 41
0.18
 42
0.0625
 43
0.38
 44
0.18
 45
0.0
 46
0.0
 47
0.0
 48
0.0
140
0.18
141
0.09
142
0.0
143
25.4
144
1.0
145
0.0
146
1.0
147
0.09
 71
     0
 72
     0
 73
     1
 74
     1
 75
     0
 76
     0
 77
     0
 78
     0
170
     0
171
     2
172
     0
173
     0
174
     0
175
     0
176
     0
177
     0
178
     0
270
     2
271
     4
272
     4
273
     2
274
     2
340
11
275
     0
280
     0
281
     0
282
     0
283
     1
284
     0
285
     0
286
     0
287
     3
288
     0
  0
ENDTAB
  0
TABLE
  2
BLOCK_RECORD
  5
1
330
0
100
AcDbSymbolTable
 70
     1
  0
BLOCK_RECORD
  5
1F
330
1
100
AcDbSymbolTableRecord
100
AcDbBlockTableRecord
  2
*MODEL_SPACE
  0
BLOCK_RECORD
  5
1B
330
1
100
AcDbSymbolTableRecord
100
AcDbBlockTableRecord
  2
*PAPER_SPACE
  0
ENDTAB
  0
ENDSEC
  0
SECTION
  2
BLOCKS
  0
BLOCK
  5
20
330
1F
100
AcDbEntity
  8
0
100
AcDbBlockBegin
  2
*MODEL_SPACE
 70
     0
 10
0.0
 20
0.0
 30
0.0
  3
*MODEL_SPACE
  1

  0
ENDBLK
  5
21
330
1F
100
AcDbEntity
  8
0
100
AcDbBlockEnd
  0
BLOCK
  5
1C
330
1B
100
AcDbEntity
 67
     1
  8
0
100
AcDbBlockBegin
  2
*PAPER_SPACE
 70
     0
 10
0.0
 20
0.0
 30
0.0
  3
*PAPER_SPACE
  1

  0
ENDBLK
  5
1D
330
1B
100
AcDbEntity
 67
     1
  8
0
100
AcDbBlockEnd
  0
ENDSEC
  0
SECTION
  2
ENTITIES
  0
LINE
  5
70
330
1F
100
AcDbEntity
  8
0
100
AcDbLine
 10
-41.9929501767913
 20
5.776573979801237
 30
0.0
 11
-42.12222770242917
 21
6.182624001536151
 31
0.0
  0
LINE
  5
71
330
1F
100
AcDbEntity
  8
0
100
AcDbLine
 10
-10.9566679539942
 20
86.42953031496586
 30
0.0
 11
-11.1564687990035
 21
86.91189222476079
 31
0.0
  0
LINE
  5
72
330
1F
100
AcDbEntity
  8
0
100
AcDbLine
 10
-10.88851960657237
 20
85.91189222476079
 30
0.0
 11
-10.9566679539942
 21
86.42953031496586
 31
0.0
  0
LINE
  5
73
330
1F
100
AcDbEntity
  8
0
100
AcDbLine
 10
-11.1564687990035
 20
86.91189222476079
 30
0.0
 11
-11.47430604419927
 21
87.32610578713388
 31
0.0
  0
LINE
  5
74
330
1F
100
AcDbEntity
  8
0
100
AcDbLine
 10
-11.47430604419927
 20
87.32610578713388
 30
0.0
 11
-11.88851960657241
 21
87.64394303232966
 31
0.0
  0
LINE
  5
75
330
1F
100
AcDbEntity
  8
0
100
AcDbLine
 10
-11.88851960657241
 20
87.64394303232966
 30
0.0
 11
-12.37088151636729
 21
87.84374387733895
 31
0.0
  0
LINE
  5
76
330
1F
100
AcDbEntity
  8
0
100
AcDbLine
 10
-12.37088151636729
 20
87.84374387733895
 30
0.0
 11
-12.88851960657236
 21
87.91189222476079
 31
0.0
  0
LINE
  5
77
330
1F
100
AcDbEntity
  8
0
100
AcDbLine
 10
-12.88851960657236
 20
87.91189222476079
 30
0.0
 11
-13.40615769677743
 21
87.84374387733895
 31
0.0
  0
LINE
  5
78
330
1F
100
AcDbEntity
  8
0
100
AcDbLine
 10
-13.40615769677743
 20
87.84374387733895
 30
0.0
 11
-13.88851960657232
 21
87.64394303232966
 31
0.0
  0
LINE
  5
79
330
1F
100
AcDbEntity
  8
0
100
AcDbLine
 10
-13.88851960657232
 20
87.64394303232966
 30
0.0
 11
-14.30273316894546
 21
87.32610578713388
 31
0.0
  0
LINE
  5
7A
330
1F
100
AcDbEntity
  8
0
100
AcDbLine
 10
-14.30273316894546
 20
87.32610578713388
 30
0.0
 11
-14.62057041414123
 21
86.91189222476079
 31
0.0
  0
LINE
  5
7B
330
1F
100
AcDbEntity
  8
0
100
AcDbLine
 10
-13.40615769677743
 20
-44.23625612266102
 30
0.0
 11
-13.88851960657232
 21
-44.43605696767032
 31
0.0
  0
LINE
  5
7C
330
1F
100
AcDbEntity
  8
0
100
AcDbLine
 10
-13.88851960657232
 20
-44.43605696767032
 30
0.0
 11
-14.30273316894546
 21
-44.75389421286609
 31
0.0
  0
LINE
  5
7D
330
1F
100
AcDbEntity
  8
0
100
AcDbLine
 10
-14.30273316894546
 20
-44.75389421286609
 30
0.0
 11
-14.62057041414123
 21
-45.16810777523919
 31
0.0
  0
LINE
  5
7E
330
1F
100
AcDbEntity
  8
0
100
AcDbLine
 10
-14.62057041414123
 20
-45.16810777523919
 30
0.0
 11
-14.82037125915053
 21
-45.65046968503412
 31
0.0
  0
LINE
  5
7F
330
1F
100
AcDbEntity
  8
0
100
AcDbLine
 10
-14.82037125915053
 20
-45.65046968503412
 30
0.0
 11
-14.88851960657236
 21
-46.16810777523919
 31
0.0
  0
LINE
  5
80
330
1F
100
AcDbEntity
  8
0
100
AcDbLine
 10
-14.88851960657236
 20
-46.16810777523919
 30
0.0
 11
-14.82037125915053
 21
-46.68574586544425
 31
0.0
  0
LINE
  5
81
330
1F
100
AcDbEntity
  8
0
100
AcDbLine
 10
-14.82037125915053
 20
-46.68574586544425
 30
0.0
 11
-14.62057041414123
 21
-47.16810777523919
 31
0.0
  0
LINE
  5
82
330
1F
100
AcDbEntity
  8
0
100
AcDbLine
 10
-14.62057041414123
 20
-47.16810777523919
 30
0.0
 11
-14.30273316894546
 21
-47.58232133761229
 31
0.0
  0
LINE
  5
83
330
1F
100
AcDbEntity
  8
0
100
AcDbLine
 10
-14.30273316894546
 20
-47.58232133761229
 30
0.0
 11
-13.88851960657232
 21
-47.90015858280805
 31
0.0
  0
LINE
  5
84
330
1F
100
AcDbEntity
  8
0
100
AcDbLine
 10
-13.88851960657232
 20
-47.90015858280805
 30
0.0
 11
-13.40615769677743
 21
-48.09995942781731
 31
0.0
  0
LINE
  5
85
330
1F
100
AcDbEntity
  8
0
100
AcDbLine
 10
-13.40615769677743
 20
-48.09995942781731
 30
0.0
 11
-12.88851960657236
 21
-48.16810777523918
 31
0.0
  0
LINE
  5
86
330
1F
100
AcDbEntity
  8
0
100
AcDbLine
 10
-171.7153247413992
 20
110.2504441950358
 30
0.0
 11
-172.0521108783614
 21
109.8514849394249
 31
0.0
  0
LINE
  5
87
330
1F
100
AcDbEntity
  8
0
100
AcDbLine
 10
-172.0521108783614
 20
109.8514849394249
 30
0.0
 11
-172.2741630524173
 21
109.378953224421
 31
0.0
  0
LINE
  5
88
330
1F
100
AcDbEntity
  8
0
100
AcDbLine
 10
-172.2741630524173
 20
109.378953224421
 30
0.0
 11
-172.3663487748634
 21
108.865051305506
 31
0.0
  0
LINE
  5
89
330
1F
100
AcDbEntity
  8
0
100
AcDbLine
 10
-172.3663487748634
 20
108.865051305506
 30
0.0
 11
-172.3223857410594
 21
108.3448007491909
 31
0.0
  0
LINE
  5
8A
330
1F
100
AcDbEntity
  8
0
100
AcDbLine
 10
-172.3223857410594
 20
108.3448007491909
 30
0.0
 11
-172.1452699591066
 21
107.8536557711338
 31
0.0
  0
LINE
  5
8B
330
1F
100
AcDbEntity
  8
0
100
AcDbLine
 10
-172.1452699591066
 20
107.8536557711338
 30
0.0
 11
-171.8470715768474
 21
107.4250870899339
 31
0.0
  0
LINE
  5
8C
330
1F
100
AcDbEntity
  8
0
100
AcDbLine
 10
-171.8470715768474
 20
107.4250870899339
 30
0.0
 11
-171.4481123212365
 21
107.0883009529718
 31
0.0
  0
LINE
  5
8D
330
1F
100
AcDbEntity
  8
0
100
AcDbLine
 10
-171.4481123212365
 20
107.0883009529718
 30
0.0
 11
-170.9755806062326
 21
106.8662487789159
 31
0.0
  0
LINE
  5
8E
330
1F
100
AcDbEntity
  8
0
100
AcDbLine
 10
-170.9755806062326
 20
106.8662487789159
 30
0.0
 11
-170.4616786873176
 21
106.7740630564697
 31
0.0
  0
LINE
  5
8F
330
1F
100
AcDbEntity
  8
0
100
AcDbLine
 10
-170.4616786873176
 20
106.7740630564697
 30
0.0
 11
-169.9414281310025
 21
106.8180260902737
 31
0.0
  0
LINE
  5
90
330
1F
100
AcDbEntity
  8
0
100
AcDbLine
 10
-169.9414281310025
 20
106.8180260902737
 30
0.0
 11
-169.4502831529454
 21
106.9951418722265
 31
0.0
  0
LINE
  5
91
330
1F
100
AcDbEntity
  8
0
100
AcDbLine
 10
-14.62057041414123
 20
86.91189222476079
 30
0.0
 11
-14.82037125915053
 21
86.42953031496586
 31
0.0
  0
LINE
  5
92
330
1F
100
AcDbEntity
  8
0
100
AcDbLine
 10
-14.82037125915053
 20
86.42953031496586
 30
0.0
 11
-14.88851960657236
 21
85.91189222476079
 31
0.0
  0
LINE
  5
93
330
1F
100
AcDbEntity
  8
0
100
AcDbLine
 10
-14.88851960657236
 20
85.91189222476079
 30
0.0
 11
-14.82037125915053
 21
85.39425413455577
 31
0.0
  0
LINE
  5
94
330
1F
100
AcDbEntity
  8
0
100
AcDbLine
 10
-14.82037125915053
 20
85.39425413455577
 30
0.0
 11
-14.62057041414123
 21
84.91189222476079
 31
0.0
  0
LINE
  5
95
330
1F
100
AcDbEntity
  8
0
100
AcDbLine
 10
-14.62057041414123
 20
84.91189222476079
 30
0.0
 11
-14.30273316894546
 21
84.49767866238768
 31
0.0
  0
LINE
  5
96
330
1F
100
AcDbEntity
  8
0
100
AcDbLine
 10
-14.30273316894546
 20
84.49767866238768
 30
0.0
 11
-13.88851960657232
 21
84.17984141719192
 31
0.0
  0
LINE
  5
97
330
1F
100
AcDbEntity
  8
0
100
AcDbLine
 10
-13.88851960657232
 20
84.17984141719192
 30
0.0
 11
-13.40615769677743
 21
83.98004057218267
 31
0.0
  0
LINE
  5
98
330
1F
100
AcDbEntity
  8
0
100
AcDbLine
 10
-13.40615769677743
 20
83.98004057218267
 30
0.0
 11
-12.88851960657236
 21
83.91189222476079
 31
0.0
  0
LINE
  5
99
330
1F
100
AcDbEntity
  8
0
100
AcDbLine
 10
-12.88851960657236
 20
83.91189222476079
 30
0.0
 11
-12.37088151636729
 21
83.98004057218267
 31
0.0
  0
LINE
  5
9A
330
1F
100
AcDbEntity
  8
0
100
AcDbLine
 10
-12.37088151636729
 20
83.98004057218267
 30
0.0
 11
-11.88851960657241
 21
84.17984141719192
 31
0.0
  0
LINE
  5
9B
330
1F
100
AcDbEntity
  8
0
100
AcDbLine
 10
-11.88851960657241
 20
84.17984141719192
 30
0.0
 11
-11.47430604419927
 21
84.49767866238768
 31
0.0
  0
LINE
  5
9C
330
1F
100
AcDbEntity
  8
0
100
AcDbLine
 10
-11.47430604419927
 20
84.49767866238768
 30
0.0
 11
-11.1564687990035
 21
84.91189222476079
 31
0.0
  0
LINE
  5
9D
330
1F
100
AcDbEntity
  8
0
100
AcDbLine
 10
-11.1564687990035
 20
84.91189222476079
 30
0.0
 11
-10.95666795399429
 21
85.39425413455577
 31
0.0
  0
LINE
  5
9E
330
1F
100
AcDbEntity
  8
0
100
AcDbLine
 10
-10.95666795399429
 20
85.39425413455577
 30
0.0
 11
-10.88851960657237
 21
85.91189222476079
 31
0.0
  0
LINE
  5
9F
330
1F
100
AcDbEntity
  8
0
100
AcDbLine
 10
-10.88851960657237
 20
-46.16810777523919
 30
0.0
 11
-10.9566679539942
 21
-45.65046968503412
 31
0.0
  0
LINE
  5
A0
330
1F
100
AcDbEntity
  8
0
100
AcDbLine
 10
-11.1564687990035
 20
-45.16810777523919
 30
0.0
 11
-11.47430604419927
 21
-44.75389421286609
 31
0.0
  0
LINE
  5
A1
330
1F
100
AcDbEntity
  8
0
100
AcDbLine
 10
-10.9566679539942
 20
-45.65046968503412
 30
0.0
 11
-11.1564687990035
 21
-45.16810777523919
 31
0.0
  0
LINE
  5
A2
330
1F
100
AcDbEntity
  8
0
100
AcDbLine
 10
-11.47430604419927
 20
-44.75389421286609
 30
0.0
 11
-11.88851960657241
 21
-44.43605696767032
 31
0.0
  0
LINE
  5
A3
330
1F
100
AcDbEntity
  8
0
100
AcDbLine
 10
-11.88851960657241
 20
-44.43605696767032
 30
0.0
 11
-12.37088151636729
 21
-44.23625612266106
 31
0.0
  0
LINE
  5
A4
330
1F
100
AcDbEntity
  8
0
100
AcDbLine
 10
-12.37088151636729
 20
-44.23625612266106
 30
0.0
 11
-12.88851960657236
 21
-44.16810777523919
 31
0.0
  0
LINE
  5
A5
330
1F
100
AcDbEntity
  8
0
100
AcDbLine
 10
-12.88851960657236
 20
-44.16810777523919
 30
0.0
 11
-13.40615769677743
 21
-44.23625612266102
 31
0.0
  0
LINE
  5
A6
330
1F
100
AcDbEntity
  8
0
100
AcDbLine
 10
-171.8885475693267
 20
-47.46792122048618
 30
0.0
 11
-171.5003373977681
 21
-47.81704333721024
 31
0.0
  0
LINE
  5
A7
330
1F
100
AcDbEntity
  8
0
100
AcDbLine
 10
-172.1731703471886
 20
-47.03021896551179
 30
0.0
 11
-171.8885475693267
 21
-47.46792122048618
 31
0.0
  0
LINE
  5
A8
330
1F
100
AcDbEntity
  8
0
100
AcDbLine
 10
-172.3348091594038
 20
-46.53376525762646
 30
0.0
 11
-172.1731703471886
 21
-47.03021896551179
 31
0.0
  0
LINE
  5
A9
330
1F
100
AcDbEntity
  8
0
100
AcDbLine
 10
-172.3624485880407
 20
-46.01239259659402
 30
0.0
 11
-172.3348091594038
 21
-46.53376525762646
 31
0.0
  0
LINE
  5
AA
330
1F
100
AcDbEntity
  8
0
100
AcDbLine
 10
-168.6849283347833
 20
107.6922995100966
 30
0.0
 11
-168.4628761607275
 21
108.1648312251006
 31
0.0
  0
LINE
  5
AB
330
1F
100
AcDbEntity
  8
0
100
AcDbLine
 10
-168.4628761607275
 20
108.1648312251006
 30
0.0
 11
-168.3706904382813
 21
108.6787331440156
 31
0.0
  0
LINE
  5
AC
330
1F
100
AcDbEntity
  8
0
100
AcDbLine
 10
-168.3706904382813
 20
108.6787331440156
 30
0.0
 11
-168.4146534720853
 21
109.1989837003307
 31
0.0
  0
LINE
  5
AD
330
1F
100
AcDbEntity
  8
0
100
AcDbLine
 10
-168.4146534720853
 20
109.1989837003307
 30
0.0
 11
-168.5917692540381
 21
109.6901286783878
 31
0.0
  0
LINE
  5
AE
330
1F
100
AcDbEntity
  8
0
100
AcDbLine
 10
-168.5917692540381
 20
109.6901286783878
 30
0.0
 11
-168.8899676362974
 21
110.1186973595877
 31
0.0
  0
LINE
  5
AF
330
1F
100
AcDbEntity
  8
0
100
AcDbLine
 10
-168.8899676362974
 20
110.1186973595877
 30
0.0
 11
-169.2889268919082
 21
110.4554834965498
 31
0.0
  0
LINE
  5
B0
330
1F
100
AcDbEntity
  8
0
100
AcDbLine
 10
-169.2889268919082
 20
110.4554834965498
 30
0.0
 11
-169.7614586069122
 21
110.6775356706057
 31
0.0
  0
LINE
  5
B1
330
1F
100
AcDbEntity
  8
0
100
AcDbLine
 10
-169.7614586069122
 20
110.6775356706057
 30
0.0
 11
-170.2753605258271
 21
110.7697213930519
 31
0.0
  0
LINE
  5
B2
330
1F
100
AcDbEntity
  8
0
100
AcDbLine
 10
-170.2753605258271
 20
110.7697213930519
 30
0.0
 11
-170.7956110821422
 21
110.7257583592479
 31
0.0
  0
LINE
  5
B3
330
1F
100
AcDbEntity
  8
0
100
AcDbLine
 10
-170.7956110821422
 20
110.7257583592479
 30
0.0
 11
-171.2867560601994
 21
110.5486425772951
 31
0.0
  0
LINE
  5
B4
330
1F
100
AcDbEntity
  8
0
100
AcDbLine
 10
-171.2867560601994
 20
110.5486425772951
 30
0.0
 11
-171.7153247413992
 21
110.2504441950358
 31
0.0
  0
LINE
  5
B5
330
1F
100
AcDbEntity
  8
0
100
AcDbLine
 10
-168.4828341614307
 20
-46.83458388282369
 30
0.0
 11
-168.374590625104
 21
-46.3238229538844
 31
0.0
  0
LINE
  5
B6
330
1F
100
AcDbEntity
  8
0
100
AcDbLine
 10
-168.7195840446013
 20
-47.29992556643499
 30
0.0
 11
-168.4828341614307
 21
-46.83458388282369
 31
0.0
  0
LINE
  5
B7
330
1F
100
AcDbEntity
  8
0
100
AcDbLine
 10
-169.0687061613254
 20
-47.68813573799358
 30
0.0
 11
-168.7195840446013
 21
-47.29992556643499
 31
0.0
  0
LINE
  5
B8
330
1F
100
AcDbEntity
  8
0
100
AcDbLine
 10
-169.5064084162998
 20
-47.97275851585545
 30
0.0
 11
-169.0687061613254
 21
-47.68813573799358
 31
0.0
  0
LINE
  5
B9
330
1F
100
AcDbEntity
  8
0
100
AcDbLine
 10
-169.0217144717455
 20
107.2933402544858
 30
0.0
 11
-168.6849283347833
 21
107.6922995100966
 31
0.0
  0
LINE
  5
BA
330
1F
100
AcDbEntity
  8
0
100
AcDbLine
 10
-169.4502831529454
 20
106.9951418722265
 30
0.0
 11
-169.0217144717455
 21
107.2933402544858
 31
0.0
  0
LINE
  5
BB
330
1F
100
AcDbEntity
  8
0
100
AcDbLine
 10
-172.254205051714
 20
-45.50163166765469
 30
0.0
 11
-172.3624485880407
 21
-46.01239259659402
 31
0.0
  0
LINE
  5
BC
330
1F
100
AcDbEntity
  8
0
100
AcDbLine
 10
-172.0174551685434
 20
-45.03628998404348
 30
0.0
 11
-172.254205051714
 21
-45.50163166765469
 31
0.0
  0
LINE
  5
BD
330
1F
100
AcDbEntity
  8
0
100
AcDbLine
 10
-168.848491643818
 20
-44.86829432999224
 30
0.0
 11
-169.2367018153766
 21
-44.51917221326818
 31
0.0
  0
LINE
  5
BE
330
1F
100
AcDbEntity
  8
0
100
AcDbLine
 10
-169.2367018153766
 20
-44.51917221326818
 30
0.0
 11
-169.7020434989879
 21
-44.28242233009761
 31
0.0
  0
LINE
  5
BF
330
1F
100
AcDbEntity
  8
0
100
AcDbLine
 10
-169.7020434989879
 20
-44.28242233009761
 30
0.0
 11
-170.2128044279272
 21
-44.17417879377087
 31
0.0
  0
LINE
  5
C0
330
1F
100
AcDbEntity
  8
0
100
AcDbLine
 10
-170.2128044279272
 20
-44.17417879377087
 30
0.0
 11
-170.7341770889597
 21
-44.20181822240773
 31
0.0
  0
LINE
  5
C1
330
1F
100
AcDbEntity
  8
0
100
AcDbLine
 10
-170.7341770889597
 20
-44.20181822240773
 30
0.0
 11
-171.230630796845
 21
-44.36345703462297
 31
0.0
  0
LINE
  5
C2
330
1F
100
AcDbEntity
  8
0
100
AcDbLine
 10
-171.230630796845
 20
-44.36345703462297
 30
0.0
 11
-171.6683330518193
 21
-44.64807981248488
 31
0.0
  0
LINE
  5
C3
330
1F
100
AcDbEntity
  8
0
100
AcDbLine
 10
-171.6683330518193
 20
-44.64807981248488
 30
0.0
 11
-172.0174551685434
 21
-45.03628998404348
 31
0.0
  0
LINE
  5
C4
330
1F
100
AcDbEntity
  8
0
100
AcDbLine
 10
-12.88851960657236
 20
-48.16810777523918
 30
0.0
 11
-12.37088151636729
 21
-48.09995942781735
 31
0.0
  0
LINE
  5
C5
330
1F
100
AcDbEntity
  8
0
100
AcDbLine
 10
-12.37088151636729
 20
-48.09995942781735
 30
0.0
 11
-11.88851960657241
 21
-47.90015858280805
 31
0.0
  0
LINE
  5
C6
330
1F
100
AcDbEntity
  8
0
100
AcDbLine
 10
-11.88851960657241
 20
-47.90015858280805
 30
0.0
 11
-11.47430604419927
 21
-47.58232133761229
 31
0.0
  0
LINE
  5
C7
330
1F
100
AcDbEntity
  8
0
100
AcDbLine
 10
-11.47430604419927
 20
-47.58232133761229
 30
0.0
 11
-11.1564687990035
 21
-47.16810777523919
 31
0.0
  0
LINE
  5
C8
330
1F
100
AcDbEntity
  8
0
100
AcDbLine
 10
-11.1564687990035
 20
-47.16810777523919
 30
0.0
 11
-10.95666795399429
 21
-46.68574586544425
 31
0.0
  0
LINE
  5
C9
330
1F
100
AcDbEntity
  8
0
100
AcDbLine
 10
-10.95666795399429
 20
-46.68574586544425
 30
0.0
 11
-10.88851960657237
 21
-46.16810777523919
 31
0.0
  0
LINE
  5
CA
330
1F
100
AcDbEntity
  8
0
100
AcDbLine
 10
-168.374590625104
 20
-46.3238229538844
 30
0.0
 11
-168.4022300537409
 21
-45.80245029285191
 31
0.0
  0
LINE
  5
CB
330
1F
100
AcDbEntity
  8
0
100
AcDbLine
 10
-168.5638688659561
 20
-45.30599658496658
 30
0.0
 11
-168.848491643818
 21
-44.86829432999224
 31
0.0
  0
LINE
  5
CC
330
1F
100
AcDbEntity
  8
0
100
AcDbLine
 10
-168.4022300537409
 20
-45.80245029285191
 30
0.0
 11
-168.5638688659561
 21
-45.30599658496658
 31
0.0
  0
LINE
  5
CD
330
1F
100
AcDbEntity
  8
0
100
AcDbLine
 10
-170.0028621241851
 20
-48.13439732807068
 30
0.0
 11
-169.5064084162998
 21
-47.97275851585545
 31
0.0
  0
LINE
  5
CE
330
1F
100
AcDbEntity
  8
0
100
AcDbLine
 10
-170.5242347852175
 20
-48.16203675670759
 30
0.0
 11
-170.0028621241851
 21
-48.13439732807068
 31
0.0
  0
LINE
  5
CF
330
1F
100
AcDbEntity
  8
0
100
AcDbLine
 10
-171.0349957141568
 20
-48.05379322038085
 30
0.0
 11
-170.5242347852175
 21
-48.16203675670759
 31
0.0
  0
LINE
  5
D0
330
1F
100
AcDbEntity
  8
0
100
AcDbLine
 10
-171.5003373977681
 20
-47.81704333721024
 30
0.0
 11
-171.0349957141568
 21
-48.05379322038085
 31
0.0
  0
LINE
  5
D1
330
1F
100
AcDbEntity
  8
0
100
AcDbLine
 10
-176.0253738554378
 20
114.4287464736263
 30
0.0
 11
-174.3685196061291
 21
115.7000954542685
 31
0.0
  0
LINE
  5
D2
330
1F
100
AcDbEntity
  8
0
100
AcDbLine
 10
-174.3685196061291
 20
115.7000954542685
 30
0.0
 11
-172.4390719671631
 21
116.499298834217
 31
0.0
  0
LINE
  5
D3
330
1F
100
AcDbEntity
  8
0
100
AcDbLine
 10
-172.4390719671631
 20
116.499298834217
 30
0.0
 11
-170.3685196065724
 21
116.7718922238742
 31
0.0
  0
LINE
  5
D4
330
1F
100
AcDbEntity
  8
0
100
AcDbLine
 10
-177.2967228360801
 20
112.7718922243175
 30
0.0
 11
-176.0253738554378
 21
114.4287464736263
 31
0.0
  0
LINE
  5
D5
330
1F
100
AcDbEntity
  8
0
100
AcDbLine
 10
-178.0959262160285
 20
110.8424445853515
 30
0.0
 11
-177.2967228360801
 21
112.7718922243175
 31
0.0
  0
LINE
  5
D6
330
1F
100
AcDbEntity
  8
0
100
AcDbLine
 10
-178.3685196056858
 20
108.7718922247608
 30
0.0
 11
-178.0959262160285
 21
110.8424445853515
 31
0.0
  0
LINE
  5
D7
330
1F
100
AcDbEntity
  8
0
100
AcDbLine
 10
-162.6411129971162
 20
110.8424445853515
 30
0.0
 11
-162.3685196074589
 21
108.7718922247608
 31
0.0
  0
LINE
  5
D8
330
1F
100
AcDbEntity
  8
0
100
AcDbLine
 10
-164.7116653577069
 20
114.4287464736263
 30
0.0
 11
-163.4403163770647
 21
112.7718922243175
 31
0.0
  0
LINE
  5
D9
330
1F
100
AcDbEntity
  8
0
100
AcDbLine
 10
-166.3685196070157
 20
115.7000954542685
 30
0.0
 11
-164.7116653577069
 21
114.4287464736263
 31
0.0
  0
LINE
  5
DA
330
1F
100
AcDbEntity
  8
0
100
AcDbLine
 10
-170.3685196065724
 20
116.7718922238742
 30
0.0
 11
-168.2979672459817
 21
116.499298834217
 31
0.0
  0
LINE
  5
DB
330
1F
100
AcDbEntity
  8
0
100
AcDbLine
 10
-163.4403163770647
 20
112.7718922243175
 30
0.0
 11
-162.6411129971162
 21
110.8424445853515
 31
0.0
  0
LINE
  5
DC
330
1F
100
AcDbEntity
  8
0
100
AcDbLine
 10
-168.2979672459817
 20
116.499298834217
 30
0.0
 11
-166.3685196070157
 21
115.7000954542685
 31
0.0
  0
LINE
  5
DD
330
1F
100
AcDbEntity
  8
0
100
AcDbLine
 10
-178.3685196065724
 20
-46.16810777523919
 30
0.0
 11
-178.0959262168849
 21
-48.23866013605937
 31
0.0
  0
LINE
  5
DE
330
1F
100
AcDbEntity
  8
0
100
AcDbLine
 10
-178.0959262168849
 20
-48.23866013605937
 30
0.0
 11
-177.2967228368479
 21
-50.16810777523922
 31
0.0
  0
LINE
  5
DF
330
1F
100
AcDbEntity
  8
0
100
AcDbLine
 10
-177.2967228368479
 20
-50.16810777523922
 30
0.0
 11
-176.0253738560648
 21
-51.82496202473163
 31
0.0
  0
LINE
  5
E0
330
1F
100
AcDbEntity
  8
0
100
AcDbLine
 10
-176.0253738560648
 20
-51.82496202473163
 30
0.0
 11
-174.3685196065724
 21
-53.09631100551474
 31
0.0
  0
LINE
  5
E1
330
1F
100
AcDbEntity
  8
0
100
AcDbLine
 10
-174.3685196065724
 20
-53.09631100551474
 30
0.0
 11
-172.4390719673926
 21
-53.89551438555181
 31
0.0
  0
LINE
  5
E2
330
1F
100
AcDbEntity
  8
0
100
AcDbLine
 10
-172.4390719673926
 20
-53.89551438555181
 30
0.0
 11
-170.3685196065724
 21
-54.16810777523926
 31
0.0
  0
LINE
  5
E3
330
1F
100
AcDbEntity
  8
0
100
AcDbLine
 10
-10.81796724575227
 20
-53.89551438555181
 30
0.0
 11
-8.88851960657246
 21
-53.09631100551474
 31
0.0
  0
LINE
  5
E4
330
1F
100
AcDbEntity
  8
0
100
AcDbLine
 10
-8.88851960657246
 20
-53.09631100551474
 30
0.0
 11
-7.231665357080059
 21
-51.82496202473167
 31
0.0
  0
LINE
  5
E5
330
1F
100
AcDbEntity
  8
0
100
AcDbLine
 10
-12.88851960657245
 20
-54.16810777523926
 30
0.0
 11
-10.81796724575227
 21
-53.89551438555181
 31
0.0
  0
LINE
  5
E6
330
1F
100
AcDbEntity
  8
0
100
AcDbLine
 10
-7.231665357080059
 20
-51.82496202473167
 30
0.0
 11
-5.960316376296895
 21
-50.16810777523927
 31
0.0
  0
LINE
  5
E7
330
1F
100
AcDbEntity
  8
0
100
AcDbLine
 10
-5.161112996259877
 20
-48.23866013605942
 30
0.0
 11
-4.888519606572378
 21
-46.16810777523928
 31
0.0
  0
LINE
  5
E8
330
1F
100
AcDbEntity
  8
0
100
AcDbLine
 10
-5.960316376296895
 20
-50.16810777523927
 30
0.0
 11
-5.161112996259877
 21
-48.23866013605942
 31
0.0
  0
LINE
  5
E9
330
1F
100
AcDbEntity
  8
0
100
AcDbLine
 10
-170.3685196065724
 20
-54.16810777523926
 30
0.0
 11
-169.3243100688119
 21
-54.09966666622976
 31
0.0
  0
LINE
  5
EA
330
1F
100
AcDbEntity
  8
0
100
AcDbLine
 10
-169.3243100688119
 20
-54.09966666622976
 30
0.0
 11
-168.2979672457522
 21
-53.89551438555181
 31
0.0
  0
LINE
  5
EB
330
1F
100
AcDbEntity
  8
0
100
AcDbLine
 10
-168.2979672457522
 20
-53.89551438555181
 30
0.0
 11
-167.3070521476517
 21
-53.55914403532955
 31
0.0
  0
LINE
  5
EC
330
1F
100
AcDbEntity
  8
0
100
AcDbLine
 10
-167.3070521476517
 20
-53.55914403532955
 30
0.0
 11
-166.3685196065724
 21
-53.09631100551474
 31
0.0
  0
LINE
  5
ED
330
1F
100
AcDbEntity
  8
0
100
AcDbLine
 10
-166.3685196065724
 20
-53.09631100551474
 30
0.0
 11
-165.4984281745026
 21
-52.51493449756912
 31
0.0
  0
LINE
  5
EE
330
1F
100
AcDbEntity
  8
0
100
AcDbLine
 10
-165.4984281745026
 20
-52.51493449756912
 30
0.0
 11
-164.71166535708
 21
-51.82496202473163
 31
0.0
  0
LINE
  5
EF
330
1F
100
AcDbEntity
  8
0
100
AcDbLine
 10
-164.71166535708
 20
-51.82496202473163
 30
0.0
 11
-164.0216928842425
 21
-51.03819920730898
 31
0.0
  0
LINE
  5
F0
330
1F
100
AcDbEntity
  8
0
100
AcDbLine
 10
-164.0216928842425
 20
-51.03819920730898
 30
0.0
 11
-163.4403163762969
 21
-50.16810777523927
 31
0.0
  0
LINE
  5
F1
330
1F
100
AcDbEntity
  8
0
100
AcDbLine
 10
-163.4403163762969
 20
-50.16810777523927
 30
0.0
 11
-162.9774833464821
 21
-49.22957523415996
 31
0.0
  0
LINE
  5
F2
330
1F
100
AcDbEntity
  8
0
100
AcDbLine
 10
-162.9774833464821
 20
-49.22957523415996
 30
0.0
 11
-162.6411129962598
 21
-48.23866013605942
 31
0.0
  0
LINE
  5
F3
330
1F
100
AcDbEntity
  8
0
100
AcDbLine
 10
-162.6411129962598
 20
-48.23866013605942
 30
0.0
 11
-162.4369607155819
 21
-47.21231731299967
 31
0.0
  0
LINE
  5
F4
330
1F
100
AcDbEntity
  8
0
100
AcDbLine
 10
-162.4369607155819
 20
-47.21231731299967
 30
0.0
 11
-162.3685196065724
 21
-46.16810777523928
 31
0.0
  0
LINE
  5
F5
330
1F
100
AcDbEntity
  8
0
100
AcDbLine
 10
-20.88851960657533
 20
-46.16810777523865
 30
0.0
 11
-20.82007849756573
 21
-47.2123173129993
 31
0.0
  0
LINE
  5
F6
330
1F
100
AcDbEntity
  8
0
100
AcDbLine
 10
-20.82007849756573
 20
-47.2123173129993
 30
0.0
 11
-20.61592621688774
 21
-48.23866013605928
 31
0.0
  0
LINE
  5
F7
330
1F
100
AcDbEntity
  8
0
100
AcDbLine
 10
-20.61592621688774
 20
-48.23866013605928
 30
0.0
 11
-20.2795558666653
 21
-49.22957523416
 31
0.0
  0
LINE
  5
F8
330
1F
100
AcDbEntity
  8
0
100
AcDbLine
 10
-20.2795558666653
 20
-49.22957523416
 30
0.0
 11
-19.81672283685036
 21
-50.16810777523945
 31
0.0
  0
LINE
  5
F9
330
1F
100
AcDbEntity
  8
0
100
AcDbLine
 10
-19.81672283685036
 20
-50.16810777523945
 30
0.0
 11
-19.23534632890446
 21
-51.03819920730935
 31
0.0
  0
LINE
  5
FA
330
1F
100
AcDbEntity
  8
0
100
AcDbLine
 10
-19.23534632890446
 20
-51.03819920730935
 30
0.0
 11
-18.54537385606665
 21
-51.82496202473203
 31
0.0
  0
LINE
  5
FB
330
1F
100
AcDbEntity
  8
0
100
AcDbLine
 10
-18.54537385606665
 20
-51.82496202473203
 30
0.0
 11
-17.7586110386437
 21
-52.51493449756948
 31
0.0
  0
LINE
  5
FC
330
1F
100
AcDbEntity
  8
0
100
AcDbLine
 10
-17.7586110386437
 20
-52.51493449756948
 30
0.0
 11
-16.88851960657362
 21
-53.09631100551501
 31
0.0
  0
LINE
  5
FD
330
1F
100
AcDbEntity
  8
0
100
AcDbLine
 10
-16.88851960657362
 20
-53.09631100551501
 30
0.0
 11
-15.94998706549404
 21
-53.55914403532969
 31
0.0
  0
LINE
  5
FE
330
1F
100
AcDbEntity
  8
0
100
AcDbLine
 10
-15.94998706549404
 20
-53.55914403532969
 30
0.0
 11
-14.95907196739318
 21
-53.89551438555171
 31
0.0
  0
LINE
  5
FF
330
1F
100
AcDbEntity
  8
0
100
AcDbLine
 10
-14.95907196739318
 20
-53.89551438555171
 30
0.0
 11
-13.93272914433311
 21
-54.09966666622935
 31
0.0
  0
LINE
  5
100
330
1F
100
AcDbEntity
  8
0
100
AcDbLine
 10
-13.93272914433311
 20
-54.09966666622935
 30
0.0
 11
-12.88851960657245
 21
-54.16810777523926
 31
0.0
  0
LINE
  5
101
330
1F
100
AcDbEntity
  8
0
100
AcDbLine
 10
-137.3685196181699
 20
90.94689222196361
 30
0.0
 11
-45.88851960647336
 21
90.94689222196077
 31
0.0
  0
LINE
  5
102
330
1F
100
AcDbEntity
  8
0
100
AcDbLine
 10
-45.88851960656685
 20
79.94689222237594
 30
0.0
 11
-45.88851960647336
 21
90.94689222196077
 31
0.0
  0
LINE
  5
103
330
1F
100
AcDbEntity
  8
0
100
AcDbLine
 10
-137.3685196182635
 20
79.94689222237878
 30
0.0
 11
-137.3685196181699
 21
90.94689222196361
 31
0.0
  0
LINE
  5
104
330
1F
100
AcDbEntity
  8
0
100
AcDbLine
 10
-137.3685196107152
 20
-1.478141775239091
 30
0.0
 11
-141.0637859563522
 21
-3.969608819487901
 31
0.0
  0
LINE
  5
105
330
1F
100
AcDbEntity
  8
0
100
AcDbLine
 10
-141.0637859563522
 20
-3.969608819487901
 30
0.0
 11
-144.5341733151117
 21
-6.765822863143656
 31
0.0
  0
LINE
  5
106
330
1F
100
AcDbEntity
  8
0
100
AcDbLine
 10
-144.5341733151117
 20
-6.765822863143656
 30
0.0
 11
-147.7546194179429
 21
-9.846590348127586
 31
0.0
  0
LINE
  5
107
330
1F
100
AcDbEntity
  8
0
100
AcDbLine
 10
-147.7546194179429
 20
-9.846590348127586
 30
0.0
 11
-150.7018670089986
 21
-13.18966274261619
 31
0.0
  0
LINE
  5
108
330
1F
100
AcDbEntity
  8
0
100
AcDbLine
 10
-150.7018670089986
 20
-13.18966274261619
 30
0.0
 11
-153.3546318037162
 21
-16.77089721437054
 31
0.0
  0
LINE
  5
109
330
1F
100
AcDbEntity
  8
0
100
AcDbLine
 10
-153.3546318037162
 20
-16.77089721437054
 30
0.0
 11
-155.693756198595
 21
-20.56443098422921
 31
0.0
  0
LINE
  5
10A
330
1F
100
AcDbEntity
  8
0
100
AcDbLine
 10
-155.693756198595
 20
-20.56443098422921
 30
0.0
 11
-157.7023476226142
 21
-24.54286810062701
 31
0.0
  0
LINE
  5
10B
330
1F
100
AcDbEntity
  8
0
100
AcDbLine
 10
-157.7023476226142
 20
-24.54286810062701
 30
0.0
 11
-159.3659005311537
 21
-28.67747728630167
 31
0.0
  0
LINE
  5
10C
330
1F
100
AcDbEntity
  8
0
100
AcDbLine
 10
-159.3659005311537
 20
-28.67747728630167
 30
0.0
 11
-160.6724011614073
 21
-32.93839942838802
 31
0.0
  0
LINE
  5
10D
330
1F
100
AcDbEntity
  8
0
100
AcDbLine
 10
-160.6724011614073
 20
-32.93839942838802
 30
0.0
 11
-161.6124142927713
 21
-37.29486321345941
 31
0.0
  0
LINE
  5
10E
330
1F
100
AcDbEntity
  8
0
100
AcDbLine
 10
-161.6124142927713
 20
-37.29486321345941
 30
0.0
 11
-162.1791513856464
 21
-41.71540735025234
 31
0.0
  0
LINE
  5
10F
330
1F
100
AcDbEntity
  8
0
100
AcDbLine
 10
-162.1791513856464
 20
-41.71540735025234
 30
0.0
 11
-162.3685196065724
 21
-46.16810777523928
 31
0.0
  0
LINE
  5
110
330
1F
100
AcDbEntity
  8
0
100
AcDbLine
 10
-45.88851960657217
 20
-1.478141775238595
 30
0.0
 11
-42.19325326040743
 21
-3.969608819116071
 31
0.0
  0
LINE
  5
111
330
1F
100
AcDbEntity
  8
0
100
AcDbLine
 10
-42.19325326040743
 20
-3.969608819116071
 30
0.0
 11
-38.72286590112348
 21
-6.765822862487574
 31
0.0
  0
LINE
  5
112
330
1F
100
AcDbEntity
  8
0
100
AcDbLine
 10
-38.72286590112348
 20
-6.765822862487574
 30
0.0
 11
-35.50241979778178
 21
-9.846590347270586
 31
0.0
  0
LINE
  5
113
330
1F
100
AcDbEntity
  8
0
100
AcDbLine
 10
-35.50241979778178
 20
-9.846590347270586
 30
0.0
 11
-32.55517220623982
 21
-13.18966274163705
 31
0.0
  0
LINE
  5
114
330
1F
100
AcDbEntity
  8
0
100
AcDbLine
 10
-32.55517220623982
 20
-13.18966274163705
 30
0.0
 11
-29.90240741106937
 21
-16.77089721334222
 31
0.0
  0
LINE
  5
115
330
1F
100
AcDbEntity
  8
0
100
AcDbLine
 10
-29.90240741106937
 20
-16.77089721334222
 30
0.0
 11
-27.56328301577993
 21
-20.56443098321786
 31
0.0
  0
LINE
  5
116
330
1F
100
AcDbEntity
  8
0
100
AcDbLine
 10
-27.56328301577993
 20
-20.56443098321786
 30
0.0
 11
-25.55469159139977
 21
-24.54286809969105
 31
0.0
  0
LINE
  5
117
330
1F
100
AcDbEntity
  8
0
100
AcDbLine
 10
-25.55469159139977
 20
-24.54286809969105
 30
0.0
 11
-23.89113868255575
 21
-28.67747728549101
 31
0.0
  0
LINE
  5
118
330
1F
100
AcDbEntity
  8
0
100
AcDbLine
 10
-23.89113868255575
 20
-28.67747728549101
 30
0.0
 11
-22.58463805205947
 21
-32.93839942774349
 31
0.0
  0
LINE
  5
119
330
1F
100
AcDbEntity
  8
0
100
AcDbLine
 10
-22.58463805205947
 20
-32.93839942774349
 30
0.0
 11
-21.64462492051914
 21
-37.29486321301209
 31
0.0
  0
LINE
  5
11A
330
1F
100
AcDbEntity
  8
0
100
AcDbLine
 10
-21.64462492051914
 20
-37.29486321301209
 30
0.0
 11
-21.07788782753699
 21
-41.71540735002313
 31
0.0
  0
LINE
  5
11B
330
1F
100
AcDbEntity
  8
0
100
AcDbLine
 10
-21.07788782753699
 20
-41.71540735002313
 30
0.0
 11
-20.88851960657533
 21
-46.16810777523865
 31
0.0
  0
LINE
  5
11C
330
1F
100
AcDbEntity
  8
0
100
AcDbLine
 10
-137.3685196182635
 20
79.94689222237878
 30
0.0
 11
-144.2182769510172
 21
77.2549366859455
 31
0.0
  0
LINE
  5
11D
330
1F
100
AcDbEntity
  8
0
100
AcDbLine
 10
-144.2182769510172
 20
77.2549366859455
 30
0.0
 11
-150.3256925469637
 21
73.14820138084805
 31
0.0
  0
LINE
  5
11E
330
1F
100
AcDbEntity
  8
0
100
AcDbLine
 10
-155.4029420751028
 20
67.82022452684826
 30
0.0
 11
-159.2107498670601
 21
61.52209782541915
 31
0.0
  0
LINE
  5
11F
330
1F
100
AcDbEntity
  8
0
100
AcDbLine
 10
-159.2107498670601
 20
61.52209782541915
 30
0.0
 11
-161.5696652676312
 21
54.55063325470707
 31
0.0
  0
LINE
  5
120
330
1F
100
AcDbEntity
  8
0
100
AcDbLine
 10
-161.5696652676312
 20
54.55063325470707
 30
0.0
 11
-162.368519610399
 21
47.23437520384617
 31
0.0
  0
LINE
  5
121
330
1F
100
AcDbEntity
  8
0
100
AcDbLine
 10
-162.368519610399
 20
47.23437520384617
 30
0.0
 11
-161.5696652663196
 21
39.91811715312857
 31
0.0
  0
LINE
  5
122
330
1F
100
AcDbEntity
  8
0
100
AcDbLine
 10
-161.5696652663196
 20
39.91811715312857
 30
0.0
 11
-159.2107498644987
 21
32.94665258283935
 31
0.0
  0
LINE
  5
123
330
1F
100
AcDbEntity
  8
0
100
AcDbLine
 10
-159.2107498644987
 20
32.94665258283935
 30
0.0
 11
-155.4029420714123
 21
26.64852588209284
 31
0.0
  0
LINE
  5
124
330
1F
100
AcDbEntity
  8
0
100
AcDbLine
 10
-155.4029420714123
 20
26.64852588209284
 30
0.0
 11
-150.3256925423181
 21
21.3205490290033
 31
0.0
  0
LINE
  5
125
330
1F
100
AcDbEntity
  8
0
100
AcDbLine
 10
-150.3256925423181
 20
21.3205490290033
 30
0.0
 11
-144.2182769456354
 21
17.21381372500073
 31
0.0
  0
LINE
  5
126
330
1F
100
AcDbEntity
  8
0
100
AcDbLine
 10
-144.2182769456354
 20
17.21381372500073
 30
0.0
 11
-137.3685196123991
 21
14.52185818979546
 31
0.0
  0
LINE
  5
127
330
1F
100
AcDbEntity
  8
0
100
AcDbLine
 10
-21.68737395003037
 20
54.55063325703622
 30
0.0
 11
-24.04628935169263
 21
61.52209782822869
 31
0.0
  0
LINE
  5
128
330
1F
100
AcDbEntity
  8
0
100
AcDbLine
 10
-21.68737395040819
 20
39.91811715388712
 30
0.0
 11
-20.88851960657244
 21
47.23437520544105
 31
0.0
  0
LINE
  5
129
330
1F
100
AcDbEntity
  8
0
100
AcDbLine
 10
-24.04628935243051
 20
32.94665258281634
 30
0.0
 11
-21.68737395040819
 21
39.91811715388712
 31
0.0
  0
LINE
  5
12A
330
1F
100
AcDbEntity
  8
0
100
AcDbLine
 10
-45.8885196082562
 20
14.52185818979591
 30
0.0
 11
-39.03876227389293
 21
17.21381372433395
 31
0.0
  0
LINE
  5
12B
330
1F
100
AcDbEntity
  8
0
100
AcDbLine
 10
-162.3685196074589
 20
108.7718922247608
 30
0.0
 11
-12.89260925891306
 21
108.7403169304082
 31
0.0
  0
LINE
  5
12C
330
1F
100
AcDbEntity
  8
0
100
AcDbLine
 10
-4.961478376535271
 20
101.7849037917394
 30
0.0
 11
-4.89304198244313
 21
100.7407511907644
 31
0.0
  0
LINE
  5
12D
330
1F
100
AcDbEntity
  8
0
100
AcDbLine
 10
-5.165618806520065
 20
102.8111907711011
 30
0.0
 11
-4.961478376535271
 21
101.7849037917394
 31
0.0
  0
LINE
  5
12E
330
1F
100
AcDbEntity
  8
0
100
AcDbLine
 10
-5.501970367764333
 20
103.8020520475592
 30
0.0
 11
-5.165618806520065
 21
102.8111907711011
 31
0.0
  0
LINE
  5
12F
330
1F
100
AcDbEntity
  8
0
100
AcDbLine
 10
-5.964777983105106
 20
104.7405336843376
 30
0.0
 11
-5.501970367764333
 21
103.8020520475592
 31
0.0
  0
LINE
  5
130
330
1F
100
AcDbEntity
  8
0
100
AcDbLine
 10
-6.546122873964269
 20
105.610577976172
 30
0.0
 11
-5.964777983105106
 21
104.7405336843376
 31
0.0
  0
LINE
  5
131
330
1F
100
AcDbEntity
  8
0
100
AcDbLine
 10
-7.236058053050174
 20
106.3972982015136
 30
0.0
 11
-6.546122873964269
 21
105.610577976172
 31
0.0
  0
LINE
  5
132
330
1F
100
AcDbEntity
  8
0
100
AcDbLine
 10
-8.022778520325323
 20
107.0872333388474
 30
0.0
 11
-7.236058053050174
 21
106.3972982015136
 31
0.0
  0
LINE
  5
133
330
1F
100
AcDbEntity
  8
0
100
AcDbLine
 10
-8.892823250135207
 20
107.6685783888502
 30
0.0
 11
-8.022778520325323
 21
107.0872333388474
 31
0.0
  0
LINE
  5
134
330
1F
100
AcDbEntity
  8
0
100
AcDbLine
 10
-9.831305513437336
 20
108.1313863615077
 30
0.0
 11
-8.892823250135207
 21
107.6685783888502
 31
0.0
  0
LINE
  5
135
330
1F
100
AcDbEntity
  8
0
100
AcDbLine
 10
-10.82216759424696
 20
108.4677384721277
 30
0.0
 11
-9.831305513437336
 21
108.1313863615077
 31
0.0
  0
LINE
  5
136
330
1F
100
AcDbEntity
  8
0
100
AcDbLine
 10
-11.8484555420256
 20
108.6718796341474
 30
0.0
 11
-10.82216759424696
 21
108.4677384721277
 31
0.0
  0
LINE
  5
137
330
1F
100
AcDbEntity
  8
0
100
AcDbLine
 10
-12.89260925891306
 20
108.7403169304082
 30
0.0
 11
-11.8484555420256
 21
108.6718796341474
 31
0.0
  0
LINE
  5
138
330
1F
100
AcDbEntity
  8
0
100
AcDbLine
 10
-178.3685196056858
 20
108.7718922247608
 30
0.0
 11
-178.3685196065724
 21
-46.16810777523919
 31
0.0
  0
LINE
  5
139
330
1F
100
AcDbEntity
  8
0
100
AcDbLine
 10
-27.85409714505296
 20
67.82022452975004
 30
0.0
 11
-32.93134667477966
 21
73.14820138334844
 31
0.0
  0
LINE
  5
13A
330
1F
100
AcDbEntity
  8
0
100
AcDbLine
 10
-32.93134667611799
 20
21.32054902815501
 30
0.0
 11
-27.85409714611606
 21
26.64852588149149
 31
0.0
  0
LINE
  5
13B
330
1F
100
AcDbEntity
  8
0
100
AcDbLine
 10
-39.03876227234253
 20
77.25493668748456
 30
0.0
 11
-45.88851960656685
 21
79.94689222237594
 31
0.0
  0
LINE
  5
13C
330
1F
100
AcDbEntity
  8
0
100
AcDbLine
 10
-39.03876227389293
 20
17.21381372433395
 30
0.0
 11
-32.93134667611799
 21
21.32054902815501
 31
0.0
  0
LINE
  5
13D
330
1F
100
AcDbEntity
  8
0
100
AcDbLine
 10
-27.85409714611606
 20
26.64852588149149
 30
0.0
 11
-24.04628935243051
 21
32.94665258281634
 31
0.0
  0
LINE
  5
13E
330
1F
100
AcDbEntity
  8
0
100
AcDbLine
 10
-20.88851960657244
 20
47.23437520544105
 30
0.0
 11
-21.68737395003037
 21
54.55063325703622
 31
0.0
  0
LINE
  5
13F
330
1F
100
AcDbEntity
  8
0
100
AcDbLine
 10
-24.04628935169263
 20
61.52209782822869
 30
0.0
 11
-27.85409714505296
 21
67.82022452975004
 31
0.0
  0
LINE
  5
140
330
1F
100
AcDbEntity
  8
0
100
AcDbLine
 10
-32.93134667477966
 20
73.14820138334844
 30
0.0
 11
-39.03876227234253
 21
77.25493668748456
 31
0.0
  0
LINE
  5
141
330
1F
100
AcDbEntity
  8
0
100
AcDbLine
 10
-137.3685196107152
 20
-1.478141775239091
 30
0.0
 11
-45.88851960657217
 21
-1.478141775238595
 31
0.0
  0
LINE
  5
142
330
1F
100
AcDbEntity
  8
0
100
AcDbLine
 10
-137.3685196123991
 20
14.52185818979546
 30
0.0
 11
-45.8885196082562
 21
14.52185818979591
 31
0.0
  0
LINE
  5
143
330
1F
100
AcDbEntity
  8
0
100
AcDbLine
 10
-141.3955270952294
 20
93.83267202886974
 30
0.0
 11
-141.7291677952707
 21
93.5400519468853
 31
0.0
  0
LINE
  5
144
330
1F
100
AcDbEntity
  8
0
100
AcDbLine
 10
-141.7291677952707
 20
93.5400519468853
 30
0.0
 11
-142.1271756144305
 21
93.34375521983685
 31
0.0
  0
LINE
  5
145
330
1F
100
AcDbEntity
  8
0
100
AcDbLine
 10
-142.1271756144305
 20
93.34375521983685
 30
0.0
 11
-142.5624269775722
 21
93.25715914527697
 31
0.0
  0
LINE
  5
146
330
1F
100
AcDbEntity
  8
0
100
AcDbLine
 10
-142.5624269775722
 20
93.25715914527697
 30
0.0
 11
-143.0052602235845
 21
93.2861651025802
 31
0.0
  0
LINE
  5
147
330
1F
100
AcDbEntity
  8
0
100
AcDbLine
 10
-143.0052602235845
 20
93.2861651025802
 30
0.0
 11
-143.4254969985684
 21
93.42879638369095
 31
0.0
  0
LINE
  5
148
330
1F
100
AcDbEntity
  8
0
100
AcDbLine
 10
-143.4254969985684
 20
93.42879638369095
 30
0.0
 11
-143.7944988607827
 21
93.67533290251079
 31
0.0
  0
LINE
  5
149
330
1F
100
AcDbEntity
  8
0
100
AcDbLine
 10
-143.7944988607827
 20
93.67533290251079
 30
0.0
 11
-144.0871189431218
 21
94.00897360270311
 31
0.0
  0
LINE
  5
14A
330
1F
100
AcDbEntity
  8
0
100
AcDbLine
 10
-144.0871189431218
 20
94.00897360270311
 30
0.0
 11
-144.283415670552
 21
94.406981421917
 31
0.0
  0
LINE
  5
14B
330
1F
100
AcDbEntity
  8
0
100
AcDbLine
 10
-144.283415670552
 20
94.406981421917
 30
0.0
 11
-144.3700117454946
 21
94.84223278501217
 31
0.0
  0
LINE
  5
14C
330
1F
100
AcDbEntity
  8
0
100
AcDbLine
 10
-144.3700117454946
 20
94.84223278501217
 30
0.0
 11
-144.341005788549
 21
95.28506603088051
 31
0.0
  0
LINE
  5
14D
330
1F
100
AcDbEntity
  8
0
100
AcDbLine
 10
-144.341005788549
 20
95.28506603088051
 30
0.0
 11
-144.1983745077465
 21
95.70530280563266
 31
0.0
  0
LINE
  5
14E
330
1F
100
AcDbEntity
  8
0
100
AcDbLine
 10
-144.1983745077465
 20
95.70530280563266
 30
0.0
 11
-143.9518379891643
 21
96.07430466754332
 31
0.0
  0
LINE
  5
14F
330
1F
100
AcDbEntity
  8
0
100
AcDbLine
 10
-143.9518379891643
 20
96.07430466754332
 30
0.0
 11
-143.618197289123
 21
96.36692474952775
 31
0.0
  0
LINE
  5
150
330
1F
100
AcDbEntity
  8
0
100
AcDbLine
 10
-143.618197289123
 20
96.36692474952775
 30
0.0
 11
-143.2201894699632
 21
96.5632214765762
 31
0.0
  0
LINE
  5
151
330
1F
100
AcDbEntity
  8
0
100
AcDbLine
 10
-143.2201894699632
 20
96.5632214765762
 30
0.0
 11
-142.7849381068214
 21
96.64981755113608
 31
0.0
  0
LINE
  5
152
330
1F
100
AcDbEntity
  8
0
100
AcDbLine
 10
-142.7849381068214
 20
96.64981755113608
 30
0.0
 11
-142.342104860809
 21
96.62081159383285
 31
0.0
  0
LINE
  5
153
330
1F
100
AcDbEntity
  8
0
100
AcDbLine
 10
-142.342104860809
 20
96.62081159383285
 30
0.0
 11
-141.9218680858252
 21
96.4781803127221
 31
0.0
  0
LINE
  5
154
330
1F
100
AcDbEntity
  8
0
100
AcDbLine
 10
-141.9218680858252
 20
96.4781803127221
 30
0.0
 11
-141.552866223611
 21
96.23164379390226
 31
0.0
  0
LINE
  5
155
330
1F
100
AcDbEntity
  8
0
100
AcDbLine
 10
-141.552866223611
 20
96.23164379390226
 30
0.0
 11
-141.2602461412718
 21
95.89800309370995
 31
0.0
  0
LINE
  5
156
330
1F
100
AcDbEntity
  8
0
100
AcDbLine
 10
-141.2602461412718
 20
95.89800309370995
 30
0.0
 11
-141.0639494138416
 21
95.49999527449606
 31
0.0
  0
LINE
  5
157
330
1F
100
AcDbEntity
  8
0
100
AcDbLine
 10
-141.0639494138416
 20
95.49999527449606
 30
0.0
 11
-140.9773533388991
 21
95.06474391140088
 31
0.0
  0
LINE
  5
158
330
1F
100
AcDbEntity
  8
0
100
AcDbLine
 10
-140.9773533388991
 20
95.06474391140088
 30
0.0
 11
-141.0063592958447
 21
94.62191066553254
 31
0.0
  0
LINE
  5
159
330
1F
100
AcDbEntity
  8
0
100
AcDbLine
 10
-141.0063592958447
 20
94.62191066553254
 30
0.0
 11
-141.1489905766473
 21
94.20167389078044
 31
0.0
  0
LINE
  5
15A
330
1F
100
AcDbEntity
  8
0
100
AcDbLine
 10
-141.1489905766473
 20
94.20167389078044
 30
0.0
 11
-141.3955270952294
 21
93.83267202886974
 31
0.0
  0
LINE
  5
15B
330
1F
100
AcDbEntity
  8
0
100
AcDbLine
 10
-39.74377929424423
 20
86.38029915961718
 30
0.0
 11
-40.16782028201095
 21
86.24938727825796
 31
0.0
  0
LINE
  5
15C
330
1F
100
AcDbEntity
  8
0
100
AcDbLine
 10
-40.16782028201095
 20
86.24938727825796
 30
0.0
 11
-40.6112949117257
 21
86.23268599462128
 31
0.0
  0
LINE
  5
15D
330
1F
100
AcDbEntity
  8
0
100
AcDbLine
 10
-40.6112949117257
 20
86.23268599462128
 30
0.0
 11
-41.0439811202499
 21
86.33133347358681
 31
0.0
  0
LINE
  5
15E
330
1F
100
AcDbEntity
  8
0
100
AcDbLine
 10
-41.0439811202499
 20
86.33133347358681
 30
0.0
 11
-41.43639205752034
 21
86.53860705248579
 31
0.0
  0
LINE
  5
15F
330
1F
100
AcDbEntity
  8
0
100
AcDbLine
 10
-41.43639205752034
 20
86.53860705248579
 30
0.0
 11
-41.76178556665194
 21
86.84038137945201
 31
0.0
  0
LINE
  5
160
330
1F
100
AcDbEntity
  8
0
100
AcDbLine
 10
-41.76178556665194
 20
86.84038137945201
 30
0.0
 11
-41.99798661773536
 21
87.2160910328083
 31
0.0
  0
LINE
  5
161
330
1F
100
AcDbEntity
  8
0
100
AcDbLine
 10
-41.99798661773536
 20
87.2160910328083
 30
0.0
 11
-42.12889849948009
 21
87.64013202056806
 31
0.0
  0
LINE
  5
162
330
1F
100
AcDbEntity
  8
0
100
AcDbLine
 10
-42.12889849948009
 20
87.64013202056806
 30
0.0
 11
-42.14559978348733
 21
88.08360665017632
 31
0.0
  0
LINE
  5
163
330
1F
100
AcDbEntity
  8
0
100
AcDbLine
 10
-42.14559978348733
 20
88.08360665017632
 30
0.0
 11
-42.04695230485212
 21
88.51629285850177
 31
0.0
  0
LINE
  5
164
330
1F
100
AcDbEntity
  8
0
100
AcDbLine
 10
-42.04695230485212
 20
88.51629285850177
 30
0.0
 11
-41.8396787262208
 21
88.90870379549477
 31
0.0
  0
LINE
  5
165
330
1F
100
AcDbEntity
  8
0
100
AcDbLine
 10
-41.8396787262208
 20
88.90870379549477
 30
0.0
 11
-41.53790439944132
 21
89.23409730428897
 31
0.0
  0
LINE
  5
166
330
1F
100
AcDbEntity
  8
0
100
AcDbLine
 10
-41.53790439944132
 20
89.23409730428897
 30
0.0
 11
-41.16219474617804
 21
89.47029835499826
 31
0.0
  0
LINE
  5
167
330
1F
100
AcDbEntity
  8
0
100
AcDbLine
 10
-41.16219474617804
 20
89.47029835499826
 30
0.0
 11
-40.73815375841131
 21
89.60121023635749
 31
0.0
  0
LINE
  5
168
330
1F
100
AcDbEntity
  8
0
100
AcDbLine
 10
-40.73815375841131
 20
89.60121023635749
 30
0.0
 11
-40.29467912869656
 21
89.61791151999417
 31
0.0
  0
LINE
  5
169
330
1F
100
AcDbEntity
  8
0
100
AcDbLine
 10
-40.29467912869656
 20
89.61791151999417
 30
0.0
 11
-39.86199292017237
 21
89.51926404102863
 31
0.0
  0
LINE
  5
16A
330
1F
100
AcDbEntity
  8
0
100
AcDbLine
 10
-39.86199292017237
 20
89.51926404102863
 30
0.0
 11
-39.46958198290193
 21
89.31199046212967
 31
0.0
  0
LINE
  5
16B
330
1F
100
AcDbEntity
  8
0
100
AcDbLine
 10
-39.46958198290193
 20
89.31199046212967
 30
0.0
 11
-39.14418847377033
 21
89.01021613516345
 31
0.0
  0
LINE
  5
16C
330
1F
100
AcDbEntity
  8
0
100
AcDbLine
 10
-39.14418847377033
 20
89.01021613516345
 30
0.0
 11
-38.9079874226869
 21
88.63450648180716
 31
0.0
  0
LINE
  5
16D
330
1F
100
AcDbEntity
  8
0
100
AcDbLine
 10
-38.9079874226869
 20
88.63450648180716
 30
0.0
 11
-38.77707554094218
 21
88.2104654940474
 31
0.0
  0
LINE
  5
16E
330
1F
100
AcDbEntity
  8
0
100
AcDbLine
 10
-38.77707554094218
 20
88.2104654940474
 30
0.0
 11
-38.76037425693494
 21
87.76699086443912
 31
0.0
  0
LINE
  5
16F
330
1F
100
AcDbEntity
  8
0
100
AcDbLine
 10
-38.76037425693494
 20
87.76699086443912
 30
0.0
 11
-38.85902173557015
 21
87.33430465611367
 31
0.0
  0
LINE
  5
170
330
1F
100
AcDbEntity
  8
0
100
AcDbLine
 10
-38.85902173557015
 20
87.33430465611367
 30
0.0
 11
-39.06629531420147
 21
86.94189371912067
 31
0.0
  0
LINE
  5
171
330
1F
100
AcDbEntity
  8
0
100
AcDbLine
 10
-39.06629531420147
 20
86.94189371912067
 30
0.0
 11
-39.36806964098094
 21
86.61650021032648
 31
0.0
  0
LINE
  5
172
330
1F
100
AcDbEntity
  8
0
100
AcDbLine
 10
-39.36806964098094
 20
86.61650021032648
 30
0.0
 11
-39.74377929424423
 21
86.38029915961718
 31
0.0
  0
LINE
  5
173
330
1F
100
AcDbEntity
  8
0
100
AcDbLine
 10
-41.46575822106732
 20
93.57722778360913
 30
0.0
 11
-41.08014851216652
 21
93.3575601336225
 31
0.0
  0
LINE
  5
174
330
1F
100
AcDbEntity
  8
0
100
AcDbLine
 10
-41.08014851216652
 20
93.3575601336225
 30
0.0
 11
-40.65082396406203
 21
93.24518061394018
 31
0.0
  0
LINE
  5
175
330
1F
100
AcDbEntity
  8
0
100
AcDbLine
 10
-40.65082396406203
 20
93.24518061394018
 30
0.0
 11
-40.20704233521474
 21
93.24774770311258
 31
0.0
  0
LINE
  5
176
330
1F
100
AcDbEntity
  8
0
100
AcDbLine
 10
-40.20704233521474
 20
93.24774770311258
 30
0.0
 11
-39.77904661024679
 21
93.36508645825486
 31
0.0
  0
LINE
  5
177
330
1F
100
AcDbEntity
  8
0
100
AcDbLine
 10
-39.77904661024679
 20
93.36508645825486
 30
0.0
 11
-39.39600399051838
 21
93.58920043711557
 31
0.0
  0
LINE
  5
178
330
1F
100
AcDbEntity
  8
0
100
AcDbLine
 10
-39.39600399051838
 20
93.58920043711557
 30
0.0
 11
-39.08401819755613
 21
93.9048166424012
 31
0.0
  0
LINE
  5
179
330
1F
100
AcDbEntity
  8
0
100
AcDbLine
 10
-39.08401819755613
 20
93.9048166424012
 30
0.0
 11
-38.8643505475695
 21
94.290426351302
 31
0.0
  0
LINE
  5
17A
330
1F
100
AcDbEntity
  8
0
100
AcDbLine
 10
-38.8643505475695
 20
94.290426351302
 30
0.0
 11
-38.75197102788719
 21
94.71975089940655
 31
0.0
  0
LINE
  5
17B
330
1F
100
AcDbEntity
  8
0
100
AcDbLine
 10
-38.75197102788719
 20
94.71975089940655
 30
0.0
 11
-38.75453811705959
 21
95.16353252825388
 31
0.0
  0
LINE
  5
17C
330
1F
100
AcDbEntity
  8
0
100
AcDbLine
 10
-38.75453811705959
 20
95.16353252825388
 30
0.0
 11
-38.87187687220183
 21
95.59152825322182
 31
0.0
  0
LINE
  5
17D
330
1F
100
AcDbEntity
  8
0
100
AcDbLine
 10
-38.87187687220183
 20
95.59152825322182
 30
0.0
 11
-39.09599085106257
 21
95.97457087295024
 31
0.0
  0
LINE
  5
17E
330
1F
100
AcDbEntity
  8
0
100
AcDbLine
 10
-39.09599085106257
 20
95.97457087295024
 30
0.0
 11
-39.41160705634821
 21
96.28655666591249
 31
0.0
  0
LINE
  5
17F
330
1F
100
AcDbEntity
  8
0
100
AcDbLine
 10
-39.41160705634821
 20
96.28655666591249
 30
0.0
 11
-39.79721676524902
 21
96.50622431589912
 31
0.0
  0
LINE
  5
180
330
1F
100
AcDbEntity
  8
0
100
AcDbLine
 10
-39.79721676524902
 20
96.50622431589912
 30
0.0
 11
-40.22654131335351
 21
96.61860383558142
 31
0.0
  0
LINE
  5
181
330
1F
100
AcDbEntity
  8
0
100
AcDbLine
 10
-40.22654131335351
 20
96.61860383558142
 30
0.0
 11
-40.6703229422008
 21
96.61603674640902
 31
0.0
  0
LINE
  5
182
330
1F
100
AcDbEntity
  8
0
100
AcDbLine
 10
-40.6703229422008
 20
96.61603674640902
 30
0.0
 11
-41.09831866716883
 21
96.49869799126674
 31
0.0
  0
LINE
  5
183
330
1F
100
AcDbEntity
  8
0
100
AcDbLine
 10
-41.09831866716883
 20
96.49869799126674
 30
0.0
 11
-41.48136128689724
 21
96.27458401240604
 31
0.0
  0
LINE
  5
184
330
1F
100
AcDbEntity
  8
0
100
AcDbLine
 10
-41.48136128689724
 20
96.27458401240604
 30
0.0
 11
-41.79334707985949
 21
95.9589678071204
 31
0.0
  0
LINE
  5
185
330
1F
100
AcDbEntity
  8
0
100
AcDbLine
 10
-41.79334707985949
 20
95.9589678071204
 30
0.0
 11
-42.01301472984603
 21
95.5733580982196
 31
0.0
  0
LINE
  5
186
330
1F
100
AcDbEntity
  8
0
100
AcDbLine
 10
-42.01301472984603
 20
95.5733580982196
 30
0.0
 11
-42.12539424952834
 21
95.14403355011507
 31
0.0
  0
LINE
  5
187
330
1F
100
AcDbEntity
  8
0
100
AcDbLine
 10
-42.12539424952834
 20
95.14403355011507
 30
0.0
 11
-42.12282716035595
 21
94.70025192126772
 31
0.0
  0
LINE
  5
188
330
1F
100
AcDbEntity
  8
0
100
AcDbLine
 10
-42.12282716035595
 20
94.70025192126772
 30
0.0
 11
-42.0054884052137
 21
94.27225619629978
 31
0.0
  0
LINE
  5
189
330
1F
100
AcDbEntity
  8
0
100
AcDbLine
 10
-42.0054884052137
 20
94.27225619629978
 30
0.0
 11
-41.78137442635295
 21
93.88921357657138
 31
0.0
  0
LINE
  5
18A
330
1F
100
AcDbEntity
  8
0
100
AcDbLine
 10
-41.78137442635295
 20
93.88921357657138
 30
0.0
 11
-41.46575822106732
 21
93.57722778360913
 31
0.0
  0
LINE
  5
18B
330
1F
100
AcDbEntity
  8
0
100
AcDbLine
 10
-141.2014394522742
 20
87.09689222476077
 30
0.0
 11
-141.0316087340163
 21
87.50689984808649
 31
0.0
  0
LINE
  5
18C
330
1F
100
AcDbEntity
  8
0
100
AcDbLine
 10
-141.0316087340163
 20
87.50689984808649
 30
0.0
 11
-140.9736826387076
 21
87.9468922247607
 31
0.0
  0
LINE
  5
18D
330
1F
100
AcDbEntity
  8
0
100
AcDbLine
 10
-140.9736826387076
 20
87.9468922247607
 30
0.0
 11
-141.0316087340161
 21
88.38688460143501
 31
0.0
  0
LINE
  5
18E
330
1F
100
AcDbEntity
  8
0
100
AcDbLine
 10
-141.0316087340161
 20
88.38688460143501
 30
0.0
 11
-141.201439452274
 21
88.79689222476074
 31
0.0
  0
LINE
  5
18F
330
1F
100
AcDbEntity
  8
0
100
AcDbLine
 10
-141.201439452274
 20
88.79689222476074
 30
0.0
 11
-141.4716011106904
 21
89.14897375277793
 31
0.0
  0
LINE
  5
190
330
1F
100
AcDbEntity
  8
0
100
AcDbLine
 10
-141.4716011106904
 20
89.14897375277793
 30
0.0
 11
-141.8236826387075
 21
89.41913541119433
 31
0.0
  0
LINE
  5
191
330
1F
100
AcDbEntity
  8
0
100
AcDbLine
 10
-141.8236826387075
 20
89.41913541119433
 30
0.0
 11
-142.2336902620332
 21
89.58896612945225
 31
0.0
  0
LINE
  5
192
330
1F
100
AcDbEntity
  8
0
100
AcDbLine
 10
-142.2336902620332
 20
89.58896612945225
 30
0.0
 11
-142.6736826387074
 21
89.64689222476086
 31
0.0
  0
LINE
  5
193
330
1F
100
AcDbEntity
  8
0
100
AcDbLine
 10
-142.6736826387074
 20
89.64689222476086
 30
0.0
 11
-143.1136750153818
 21
89.58896612945233
 31
0.0
  0
LINE
  5
194
330
1F
100
AcDbEntity
  8
0
100
AcDbLine
 10
-143.1136750153818
 20
89.58896612945233
 30
0.0
 11
-143.5236826387076
 21
89.41913541119447
 31
0.0
  0
LINE
  5
195
330
1F
100
AcDbEntity
  8
0
100
AcDbLine
 10
-143.5236826387076
 20
89.41913541119447
 30
0.0
 11
-143.8757641667247
 21
89.14897375277812
 31
0.0
  0
LINE
  5
196
330
1F
100
AcDbEntity
  8
0
100
AcDbLine
 10
-143.8757641667247
 20
89.14897375277812
 30
0.0
 11
-144.1459258251411
 21
88.79689222476101
 31
0.0
  0
LINE
  5
197
330
1F
100
AcDbEntity
  8
0
100
AcDbLine
 10
-144.1459258251411
 20
88.79689222476101
 30
0.0
 11
-144.315756543399
 21
88.38688460143528
 31
0.0
  0
LINE
  5
198
330
1F
100
AcDbEntity
  8
0
100
AcDbLine
 10
-144.315756543399
 20
88.38688460143528
 30
0.0
 11
-144.3736826387077
 21
87.94689222476102
 31
0.0
  0
LINE
  5
199
330
1F
100
AcDbEntity
  8
0
100
AcDbLine
 10
-144.3736826387077
 20
87.94689222476102
 30
0.0
 11
-144.315756543399
 21
87.50689984808676
 31
0.0
  0
LINE
  5
19A
330
1F
100
AcDbEntity
  8
0
100
AcDbLine
 10
-144.315756543399
 20
87.50689984808676
 30
0.0
 11
-144.1459258251413
 21
87.09689222476099
 31
0.0
  0
LINE
  5
19B
330
1F
100
AcDbEntity
  8
0
100
AcDbLine
 10
-144.1459258251413
 20
87.09689222476099
 30
0.0
 11
-143.8757641667248
 21
86.74481069674384
 31
0.0
  0
LINE
  5
19C
330
1F
100
AcDbEntity
  8
0
100
AcDbLine
 10
-143.8757641667248
 20
86.74481069674384
 30
0.0
 11
-143.5236826387078
 21
86.47464903832743
 31
0.0
  0
LINE
  5
19D
330
1F
100
AcDbEntity
  8
0
100
AcDbLine
 10
-143.5236826387078
 20
86.47464903832743
 30
0.0
 11
-143.113675015382
 21
86.30481832006953
 31
0.0
  0
LINE
  5
19E
330
1F
100
AcDbEntity
  8
0
100
AcDbLine
 10
-143.113675015382
 20
86.30481832006953
 30
0.0
 11
-142.6736826387078
 21
86.24689222476091
 31
0.0
  0
LINE
  5
19F
330
1F
100
AcDbEntity
  8
0
100
AcDbLine
 10
-142.6736826387078
 20
86.24689222476091
 30
0.0
 11
-142.2336902620335
 21
86.30481832006944
 31
0.0
  0
LINE
  5
1A0
330
1F
100
AcDbEntity
  8
0
100
AcDbLine
 10
-142.2336902620335
 20
86.30481832006944
 30
0.0
 11
-141.8236826387078
 21
86.47464903832726
 31
0.0
  0
LINE
  5
1A1
330
1F
100
AcDbEntity
  8
0
100
AcDbLine
 10
-141.8236826387078
 20
86.47464903832726
 30
0.0
 11
-141.4716011106905
 21
86.74481069674366
 31
0.0
  0
LINE
  5
1A2
330
1F
100
AcDbEntity
  8
0
100
AcDbLine
 10
-141.4716011106905
 20
86.74481069674366
 30
0.0
 11
-141.2014394522742
 21
87.09689222476077
 31
0.0
  0
LINE
  5
1A3
330
1F
100
AcDbEntity
  8
0
100
AcDbLine
 10
-144.1459258251411
 20
7.371858224760927
 30
0.0
 11
-144.3110590022636
 21
6.979021919806883
 31
0.0
  0
LINE
  5
1A4
330
1F
100
AcDbEntity
  8
0
100
AcDbLine
 10
-144.3110590022636
 20
6.979021919806883
 30
0.0
 11
-144.3733098006147
 21
6.557460338562625
 31
0.0
  0
LINE
  5
1A5
330
1F
100
AcDbEntity
  8
0
100
AcDbLine
 10
-144.3733098006147
 20
6.557460338562625
 30
0.0
 11
-144.3287667735918
 21
6.133661745572791
 31
0.0
  0
LINE
  5
1A6
330
1F
100
AcDbEntity
  8
0
100
AcDbLine
 10
-144.3287667735918
 20
6.133661745572791
 30
0.0
 11
-144.1802287234005
 21
5.734254965057152
 31
0.0
  0
LINE
  5
1A7
330
1F
100
AcDbEntity
  8
0
100
AcDbLine
 10
-144.1802287234005
 20
5.734254965057152
 30
0.0
 11
-143.9370288420191
 21
5.384336193950869
 31
0.0
  0
LINE
  5
1A8
330
1F
100
AcDbEntity
  8
0
100
AcDbLine
 10
-143.9370288420191
 20
5.384336193950869
 30
0.0
 11
-143.6144482724212
 21
5.105892115553733
 31
0.0
  0
LINE
  5
1A9
330
1F
100
AcDbEntity
  8
0
100
AcDbLine
 10
-143.6144482724212
 20
5.105892115553733
 30
0.0
 11
-143.2327559381631
 21
4.916418395357171
 31
0.0
  0
LINE
  5
1AA
330
1F
100
AcDbEntity
  8
0
100
AcDbLine
 10
-143.2327559381631
 20
4.916418395357171
 30
0.0
 11
-142.8159349723725
 21
4.827820364036715
 31
0.0
  0
LINE
  5
1AB
330
1F
100
AcDbEntity
  8
0
100
AcDbLine
 10
-142.8159349723725
 20
4.827820364036715
 30
0.0
 11
-142.3901757692902
 21
4.845664961741043
 31
0.0
  0
LINE
  5
1AC
330
1F
100
AcDbEntity
  8
0
100
AcDbLine
 10
-142.3901757692902
 20
4.845664961741043
 30
0.0
 11
-141.9822303454787
 21
4.968830946768441
 31
0.0
  0
LINE
  5
1AD
330
1F
100
AcDbEntity
  8
0
100
AcDbLine
 10
-141.9822303454787
 20
4.968830946768441
 30
0.0
 11
-141.6177314122344
 21
5.189579347306958
 31
0.0
  0
LINE
  5
1AE
330
1F
100
AcDbEntity
  8
0
100
AcDbLine
 10
-141.6177314122344
 20
5.189579347306958
 30
0.0
 11
-141.3195817780664
 21
5.494039729494799
 31
0.0
  0
LINE
  5
1AF
330
1F
100
AcDbEntity
  8
0
100
AcDbLine
 10
-141.3195817780664
 20
5.494039729494799
 30
0.0
 11
-141.106515281007
 21
5.863081727792269
 31
0.0
  0
LINE
  5
1B0
330
1F
100
AcDbEntity
  8
0
100
AcDbLine
 10
-141.106515281007
 20
5.863081727792269
 30
0.0
 11
-140.9919196726704
 21
6.273517076204741
 31
0.0
  0
LINE
  5
1B1
330
1F
100
AcDbEntity
  8
0
100
AcDbLine
 10
-140.9919196726704
 20
6.273517076204741
 30
0.0
 11
-140.9829954165815
 21
6.699556612315886
 31
0.0
  0
LINE
  5
1B2
330
1F
100
AcDbEntity
  8
0
100
AcDbLine
 10
-140.9829954165815
 20
6.699556612315886
 30
0.0
 11
-141.0803032565713
 21
7.114430705207957
 31
0.0
  0
LINE
  5
1B3
330
1F
100
AcDbEntity
  8
0
100
AcDbLine
 10
-141.0803032565713
 20
7.114430705207957
 30
0.0
 11
-141.2777289831801
 21
7.492071289824443
 31
0.0
  0
LINE
  5
1B4
330
1F
100
AcDbEntity
  8
0
100
AcDbLine
 10
-141.2777289831801
 20
7.492071289824443
 30
0.0
 11
-141.5628676119243
 21
7.80874981936884
 31
0.0
  0
LINE
  5
1B5
330
1F
100
AcDbEntity
  8
0
100
AcDbLine
 10
-141.5628676119243
 20
7.80874981936884
 30
0.0
 11
-141.9178028340931
 21
8.044568217167884
 31
0.0
  0
LINE
  5
1B6
330
1F
100
AcDbEntity
  8
0
100
AcDbLine
 10
-141.9178028340931
 20
8.044568217167884
 30
0.0
 11
-142.3202327643173
 21
8.184709146008394
 31
0.0
  0
LINE
  5
1B7
330
1F
100
AcDbEntity
  8
0
100
AcDbLine
 10
-142.3202327643173
 20
8.184709146008394
 30
0.0
 11
-142.7448712500471
 21
8.220367035928987
 31
0.0
  0
LINE
  5
1B8
330
1F
100
AcDbEntity
  8
0
100
AcDbLine
 10
-142.7448712500471
 20
8.220367035928987
 30
0.0
 11
-143.1650366935131
 21
8.149301370565434
 31
0.0
  0
LINE
  5
1B9
330
1F
100
AcDbEntity
  8
0
100
AcDbLine
 10
-143.1650366935131
 20
8.149301370565434
 30
0.0
 11
-143.5543285546418
 21
7.975977467033765
 31
0.0
  0
LINE
  5
1BA
330
1F
100
AcDbEntity
  8
0
100
AcDbLine
 10
-143.5543285546418
 20
7.975977467033765
 30
0.0
 11
-143.8882861940833
 21
7.711285903633605
 31
0.0
  0
LINE
  5
1BB
330
1F
100
AcDbEntity
  8
0
100
AcDbLine
 10
-143.8882861940833
 20
7.711285903633605
 30
0.0
 11
-144.1459258251411
 21
7.371858224760927
 31
0.0
  0
LINE
  5
1BC
330
1F
100
AcDbEntity
  8
0
100
AcDbLine
 10
-39.45941592168675
 20
5.110039351565443
 30
0.0
 11
-39.14705454493971
 21
5.399900868488994
 31
0.0
  0
LINE
  5
1BD
330
1F
100
AcDbEntity
  8
0
100
AcDbLine
 10
-39.14705454493971
 20
5.399900868488994
 30
0.0
 11
-38.9165922031727
 21
5.758336968378234
 31
0.0
  0
LINE
  5
1BE
330
1F
100
AcDbEntity
  8
0
100
AcDbLine
 10
-38.9165922031727
 20
5.758336968378234
 30
0.0
 11
-38.7825096929003
 21
6.162825792841302
 31
0.0
  0
LINE
  5
1BF
330
1F
100
AcDbEntity
  8
0
100
AcDbLine
 10
-38.7825096929003
 20
6.162825792841302
 30
0.0
 11
-38.7532319113636
 21
6.587951821431419
 31
0.0
  0
LINE
  5
1C0
330
1F
100
AcDbEntity
  8
0
100
AcDbLine
 10
-38.7532319113636
 20
6.587951821431419
 30
0.0
 11
-38.83059848925298
 21
7.007002822268115
 31
0.0
  0
LINE
  5
1C1
330
1F
100
AcDbEntity
  8
0
100
AcDbLine
 10
-38.83059848925298
 20
7.007002822268115
 30
0.0
 11
-39.00974819994519
 21
7.393648279806956
 31
0.0
  0
LINE
  5
1C2
330
1F
100
AcDbEntity
  8
0
100
AcDbLine
 10
-39.00974819994519
 20
7.393648279806956
 30
0.0
 11
-39.2794244082508
 21
7.723593837968298
 31
0.0
  0
LINE
  5
1C3
330
1F
100
AcDbEntity
  8
0
100
AcDbLine
 10
-39.2794244082508
 20
7.723593837968298
 30
0.0
 11
-39.62268236620229
 21
7.976107803877991
 31
0.0
  0
LINE
  5
1C4
330
1F
100
AcDbEntity
  8
0
100
AcDbLine
 10
-39.62268236620229
 20
7.976107803877991
 30
0.0
 11
-40.01795391388728
 21
8.135323796376522
 31
0.0
  0
LINE
  5
1C5
330
1F
100
AcDbEntity
  8
0
100
AcDbLine
 10
-40.01795391388728
 20
8.135323796376522
 30
0.0
 11
-40.44040268625741
 21
8.191237689099735
 31
0.0
  0
LINE
  5
1C6
330
1F
100
AcDbEntity
  8
0
100
AcDbLine
 10
-40.44040268625741
 20
8.191237689099735
 30
0.0
 11
-40.86348467328685
 21
8.140336206530959
 31
0.0
  0
LINE
  5
1C7
330
1F
100
AcDbEntity
  8
0
100
AcDbLine
 10
-40.86348467328685
 20
8.140336206530959
 30
0.0
 11
-41.26061607774394
 21
7.985817676022484
 31
0.0
  0
LINE
  5
1C8
330
1F
100
AcDbEntity
  8
0
100
AcDbLine
 10
-41.26061607774394
 20
7.985817676022484
 30
0.0
 11
-41.60684367293931
 21
7.737391065125625
 31
0.0
  0
LINE
  5
1C9
330
1F
100
AcDbEntity
  8
0
100
AcDbLine
 10
-41.60684367293931
 20
7.737391065125625
 30
0.0
 11
-41.88041270573099
 21
7.410665931452153
 31
0.0
  0
LINE
  5
1CA
330
1F
100
AcDbEntity
  8
0
100
AcDbLine
 10
-41.88041270573099
 20
7.410665931452153
 30
0.0
 11
-42.06413382767205
 21
7.026171616761765
 31
0.0
  0
LINE
  5
1CB
330
1F
100
AcDbEntity
  8
0
100
AcDbLine
 10
-42.06413382767205
 20
7.026171616761765
 30
0.0
 11
-42.14646316499199
 21
6.608067312917671
 31
0.0
  0
LINE
  5
1CC
330
1F
100
AcDbEntity
  8
0
100
AcDbLine
 10
-42.14646316499199
 20
6.608067312917671
 30
0.0
 11
-42.12222770242917
 21
6.182624001536151
 31
0.0
  0
LINE
  5
1CD
330
1F
100
AcDbEntity
  8
0
100
AcDbLine
 10
-41.9929501767913
 20
5.776573979801237
 30
0.0
 11
-41.76675353921285
 21
5.415430765768907
 31
0.0
  0
LINE
  5
1CE
330
1F
100
AcDbEntity
  8
0
100
AcDbLine
 10
-41.76675353921285
 20
5.415430765768907
 30
0.0
 11
-41.45785066465357
 21
5.121886318085914
 31
0.0
  0
LINE
  5
1CF
330
1F
100
AcDbEntity
  8
0
100
AcDbLine
 10
-41.45785066465357
 20
5.121886318085914
 30
0.0
 11
-41.08565100635904
 21
4.914385130036393
 31
0.0
  0
LINE
  5
1D0
330
1F
100
AcDbEntity
  8
0
100
AcDbLine
 10
-41.08565100635904
 20
4.914385130036393
 30
0.0
 11
-40.67354123771455
 21
4.805965264401536
 31
0.0
  0
LINE
  5
1D1
330
1F
100
AcDbEntity
  8
0
100
AcDbLine
 10
-40.67354123771455
 20
4.805965264401536
 30
0.0
 11
-40.24741573111763
 21
4.803439140079556
 31
0.0
  0
LINE
  5
1D2
330
1F
100
AcDbEntity
  8
0
100
AcDbLine
 10
-40.24741573111763
 20
4.803439140079556
 30
0.0
 11
-39.83404951932796
 21
4.90696548275197
 31
0.0
  0
LINE
  5
1D3
330
1F
100
AcDbEntity
  8
0
100
AcDbLine
 10
-39.83404951932796
 20
4.90696548275197
 30
0.0
 11
-39.45941592168675
 21
5.110039351565443
 31
0.0
  0
LINE
  5
1D4
330
1F
100
AcDbEntity
  8
0
100
AcDbLine
 10
-4.89304198244313
 20
100.7407511907644
 30
0.0
 11
-4.888519606572378
 21
-46.16810777523928
 31
0.0
  0
LINE
  5
1D5
330
1F
100
AcDbEntity
  8
0
100
AcDbLine
 10
-150.3256925469637
 20
73.14820138084805
 30
0.0
 11
-155.4029420751028
 21
67.82022452684826
 31
0.0
  0
ENDSEC
  0
SECTION
  2
OBJECTS
  0
DICTIONARY
  5
C
330
0
100
AcDbDictionary
  3
ACAD_GROUP
350
D
  3
ACAD_LAYOUT
350
1A
  3
ACAD_MATERIAL
350
43
  3
ACAD_MLEADERSTYLE
350
6B
  3
ACAD_MLINESTYLE
350
17
  3
ACAD_PLOTSETTINGS
350
19
  3
ACAD_SCALELIST
350
47
  3
ACAD_VISUALSTYLE
350
2A
  3
ACDBHEADERROUNDTRIPXREC
350
1D6
  3
ACDBVARIABLEDICTIONARY
350
1F7
  0
DICTIONARY
  5
1FE
330
8
100
AcDbDictionary
280
     1
  3
ACAD_XREC_ROUNDTRIP
360
1FF
  0
DICTIONARY
  5
D
102
{ACAD_REACTORS
330
C
102
}
330
C
100
AcDbDictionary
  0
DICTIONARY
  5
1A
102
{ACAD_REACTORS
330
C
102
}
330
C
100
AcDbDictionary
  0
DICTIONARY
  5
43
102
{ACAD_REACTORS
330
C
102
}
330
C
100
AcDbDictionary
  3
BYBLOCK
350
45
  3
BYLAYER
350
44
  3
GLOBAL
350
46
  0
DICTIONARY
  5
6B
102
{ACAD_REACTORS
330
C
102
}
330
C
100
AcDbDictionary
  3
STANDARD
350
6C
  0
DICTIONARY
  5
17
102
{ACAD_REACTORS
330
C
102
}
330
C
100
AcDbDictionary
  3
STANDARD
350
18
  0
DICTIONARY
  5
19
102
{ACAD_REACTORS
330
C
102
}
330
C
100
AcDbDictionary
  0
DICTIONARY
  5
47
102
{ACAD_REACTORS
330
C
102
}
330
C
100
AcDbDictionary
  3
A0
350
48
  3
A1
350
49
  3
A2
350
4A
  3
A3
350
4B
  3
A4
350
4C
  3
A5
350
4D
  3
A6
350
4E
  3
A7
350
4F
  3
A8
350
50
  3
A9
350
51
  3
B0
350
52
  3
B1
350
53
  3
B2
350
54
  3
B3
350
55
  3
B4
350
56
  3
B5
350
57
  3
B6
350
58
  3
B7
350
59
  3
B8
350
5A
  3
B9
350
5B
  3
C0
350
5C
  3
C1
350
5D
  3
C2
350
5E
  3
C3
350
5F
  3
C4
350
60
  3
C5
350
61
  3
C6
350
62
  3
C7
350
63
  3
C8
350
64
  3
C9
350
65
  3
D0
350
66
  3
D1
350
67
  3
D2
350
68
  0
DICTIONARY
  5
2A
102
{ACAD_REACTORS
330
C
102
}
330
C
100
AcDbDictionary
  3
2DWIREFRAME
350
2F
  3
BASIC
350
32
  3
BRIGHTEN
350
36
  3
COLORCHANGE
350
3A
  3
CONCEPTUAL
350
34
  3
DIM
350
35
  3
EDGECOLOROFF
350
3D
  3
FACEPATTERN
350
39
  3
FLAT
350
2B
  3
FLATWITHEDGES
350
2C
  3
GOURAUD
350
2D
  3
GOURAUDWITHEDGES
350
2E
  3
HIDDEN
350
31
  3
JITTEROFF
350
3B
  3
LINEPATTERN
350
38
  3
OVERHANGOFF
350
3C
  3
REALISTIC
350
33
  3
SHADED
350
42
  3
SHADED_WITH_EDGES
350
41
  3
SHADES_OF_GRAY
350
3E
  3
SKETCHY
350
3F
  3
THICKEN
350
37
  3
WIREFRAME
350
30
  3
X-RAY
350
40
  0
DICTIONARY
  5
1D6
102
{ACAD_REACTORS
330
C
102
}
330
C
100
AcDbDictionary
  3
CEPSNID
350
1E0
  3
CEPSNTYPE
350
1DF
  3
DIMSTYLEDATA
350
1F6
  3
FINGERPRINTGUID
350
1E1
  3
HYPERLINKBASE
350
1D9
  3
INSUNITS
350
1DE
  3
LAYOUTDICT
350
1DB
  3
LWETCUNION
350
1DD
  3
PLOTSETDICT
350
1DC
  3
PSVPSCALE
350
1E3
  3
PUCSBASE
350
1E6
  3
PUCSORGBACK
350
1EC
  3
PUCSORGBOTTOM
350
1E8
  3
PUCSORGFRONT
350
1EB
  3
PUCSORGLEFT
350
1E9
  3
PUCSORGRIGHT
350
1EA
  3
PUCSORGTOP
350
1E7
  3
PUCSORTHOREF
350
1E4
  3
PUCSORTHOVIEW
350
1E5
  3
STYLESHEET
350
1DA
  3
TSTACKALIGN
350
1D7
  3
TSTACKSIZE
350
1D8
  3
UCSBASE
350
1EF
  3
UCSORGBACK
350
1F5
  3
UCSORGBOTTOM
350
1F1
  3
UCSORGFRONT
350
1F4
  3
UCSORGLEFT
350
1F2
  3
UCSORGRIGHT
350
1F3
  3
UCSORGTOP
350
1F0
  3
UCSORTHOREF
350
1ED
  3
UCSORTHOVIEW
350
1EE
  3
VERSIONGUID
350
1E2
  0
DICTIONARY
  5
1F7
102
{ACAD_REACTORS
330
C
102
}
330
C
100
AcDbDictionary
  3
CANNOSCALE
350
200
  3
CMLEADERSTYLE
350
1F9
  3
CTABLESTYLE
350
1F8
  3
DIMASSOC
350
1FC
  3
HIDETEXT
350
1FD
  3
MSLTSCALE
350
201
  0
XRECORD
  5
1FF
102
{ACAD_REACTORS
330
1FE
102
}
330
1FE
100
AcDbXrecord
102
VTR_0.000_0.000_1.000_1.000_VISUALSTYLE
340
2F
102
VTR_0.000_0.000_1.000_1.000_GRIDDISPLAY
 70
     3
102
VTR_0.000_0.000_1.000_1.000_GRIDMAJOR
 70
     5
102
VTR_0.000_0.000_1.000_1.000_DEFAULTLIGHTING
280
     1
102
VTR_0.000_0.000_1.000_1.000_DEFAULTLIGHTINGTYPE
 70
     1
102
VTR_0.000_0.000_1.000_1.000_BRIGHTNESS
141
0.0
102
VTR_0.000_0.000_1.000_1.000_CONTRAST
142
0.0
  0
MATERIAL
  5
45
102
{ACAD_REACTORS
330
43
102
}
102
{ACAD_XDICTIONARY
360
204
102
}
330
43
100
AcDbMaterial
  1
BYBLOCK
  0
MATERIAL
  5
44
102
{ACAD_REACTORS
330
43
102
}
102
{ACAD_XDICTIONARY
360
202
102
}
330
43
100
AcDbMaterial
  1
BYLAYER
  0
MATERIAL
  5
46
102
{ACAD_REACTORS
330
43
102
}
102
{ACAD_XDICTIONARY
360
206
102
}
330
43
100
AcDbMaterial
  1
GLOBAL
  0
ACAD_PROXY_OBJECT
  5
6C
102
{ACAD_REACTORS
330
6B
102
}
330
6B
100
AcDbProxyObject
 90
      499
 91
      505
 93
      610
310
40901902A4063FBFFFFFE056BD1B81E855B9FC0AD7A3703D0AD73F4214DD185B99185C9900AD7A3703D0AC73F90141901A02B5E8DC0F42B1CFC02B5E8DC0F42B1CFE5764000000000000300FC0
340
14
340
0
340
11
340
0
 94
        0
1001
ACAD_MLEADERVER
1070
     2
  0
MLINESTYLE
  5
18
102
{ACAD_REACTORS
330
17
102
}
330
17
100
AcDbMlineStyle
  2
Standard
 70
     0
  3

 62
   256
 51
90.0
 52
90.0
 71
     2
 49
0.5
 62
   256
  6
BYLAYER
 49
-0.5
 62
   256
  6
BYLAYER
  0
ACAD_PROXY_OBJECT
  5
48
102
{ACAD_REACTORS
330
47
102
}
330
47
100
AcDbProxyObject
 90
      499
 91
      503
 93
       41
310
903313A31580
  0
ACAD_PROXY_OBJECT
  5
49
102
{ACAD_REACTORS
330
47
102
}
330
47
100
AcDbProxyObject
 90
      499
 91
      503
 93
      105
310
903313A324000000000000004000
  0
ACAD_PROXY_OBJECT
  5
4A
102
{ACAD_REACTORS
330
47
102
}
330
47
100
AcDbProxyObject
 90
      499
 91
      503
 93
      105
310
903313A344000000000000104000
  0
ACAD_PROXY_OBJECT
  5
4B
102
{ACAD_REACTORS
330
47
102
}
330
47
100
AcDbProxyObject
 90
      499
 91
      503
 93
      105
310
903313A354000000000000144000
  0
ACAD_PROXY_OBJECT
  5
4C
102
{ACAD_REACTORS
330
47
102
}
330
47
100
AcDbProxyObject
 90
      499
 91
      503
 93
      105
310
903313A384000000000000204000
  0
ACAD_PROXY_OBJECT
  5
4D
102
{ACAD_REACTORS
330
47
102
}
330
47
100
AcDbProxyObject
 90
      499
 91
      503
 93
      113
310
904313A31304000000000000244000
  0
ACAD_PROXY_OBJECT
  5
4E
102
{ACAD_REACTORS
330
47
102
}
330
47
100
AcDbProxyObject
 90
      499
 91
      503
 93
      113
310
904313A31364000000000000304000
  0
ACAD_PROXY_OBJECT
  5
4F
102
{ACAD_REACTORS
330
47
102
}
330
47
100
AcDbProxyObject
 90
      499
 91
      503
 93
      113
310
904313A32304000000000000344000
  0
ACAD_PROXY_OBJECT
  5
50
102
{ACAD_REACTORS
330
47
102
}
330
47
100
AcDbProxyObject
 90
      499
 91
      503
 93
      113
310
904313A333040000000000003E4000
  0
ACAD_PROXY_OBJECT
  5
51
102
{ACAD_REACTORS
330
47
102
}
330
47
100
AcDbProxyObject
 90
      499
 91
      503
 93
      113
310
904313A34304000000000000444000
  0
ACAD_PROXY_OBJECT
  5
52
102
{ACAD_REACTORS
330
47
102
}
330
47
100
AcDbProxyObject
 90
      499
 91
      503
 93
      113
310
904313A35304000000000000494000
  0
ACAD_PROXY_OBJECT
  5
53
102
{ACAD_REACTORS
330
47
102
}
330
47
100
AcDbProxyObject
 90
      499
 91
      503
 93
      121
310
905313A3130304000000000000594000
  0
ACAD_PROXY_OBJECT
  5
54
102
{ACAD_REACTORS
330
47
102
}
330
47
100
AcDbProxyObject
 90
      499
 91
      503
 93
      105
310
903323A310000000000000010100
  0
ACAD_PROXY_OBJECT
  5
55
102
{ACAD_REACTORS
330
47
102
}
330
47
100
AcDbProxyObject
 90
      499
 91
      503
 93
      105
310
903343A310000000000000410100
  0
ACAD_PROXY_OBJECT
  5
56
102
{ACAD_REACTORS
330
47
102
}
330
47
100
AcDbProxyObject
 90
      499
 91
      503
 93
      105
310
903383A310000000000000810100
  0
ACAD_PROXY_OBJECT
  5
57
102
{ACAD_REACTORS
330
47
102
}
330
47
100
AcDbProxyObject
 90
      499
 91
      503
 93
      113
310
90431303A310000000000000910100
  0
ACAD_PROXY_OBJECT
  5
58
102
{ACAD_REACTORS
330
47
102
}
330
47
100
AcDbProxyObject
 90
      499
 91
      503
 93
      121
310
9053130303A310000000000001650100
  0
ACAD_PROXY_OBJECT
  5
59
102
{ACAD_REACTORS
330
47
102
}
330
47
100
AcDbProxyObject
 90
      499
 91
      503
 93
      257
310
90E312F31323822203D2031272D3022000000000000200FC000000000000284000
  0
ACAD_PROXY_OBJECT
  5
5A
102
{ACAD_REACTORS
330
47
102
}
330
47
100
AcDbProxyObject
 90
      499
 91
      503
 93
      249
310
90D312F363422203D2031272D3022000000000000240FC000000000000284000
  0
ACAD_PROXY_OBJECT
  5
5B
102
{ACAD_REACTORS
330
47
102
}
330
47
100
AcDbProxyObject
 90
      499
 91
      503
 93
      249
310
90D312F333222203D2031272D3022000000000000280FC000000000000284000
  0
ACAD_PROXY_OBJECT
  5
5C
102
{ACAD_REACTORS
330
47
102
}
330
47
100
AcDbProxyObject
 90
      499
 91
      503
 93
      249
310
90D312F313622203D2031272D30220000000000002C0FC000000000000284000
  0
ACAD_PROXY_OBJECT
  5
5D
102
{ACAD_REACTORS
330
47
102
}
330
47
100
AcDbProxyObject
 90
      499
 91
      503
 93
      249
310
90D332F333222203D2031272D30220000000000002E0FC000000000000284000
  0
ACAD_PROXY_OBJECT
  5
5E
102
{ACAD_REACTORS
330
47
102
}
330
47
100
AcDbProxyObject
 90
      499
 91
      503
 93
      241
310
90C312F3822203D2031272D3022000000000000300FC000000000000284000
  0
ACAD_PROXY_OBJECT
  5
5F
102
{ACAD_REACTORS
330
47
102
}
330
47
100
AcDbProxyObject
 90
      499
 91
      503
 93
      249
310
90D332F313622203D2031272D3022000000000000320FC000000000000284000
  0
ACAD_PROXY_OBJECT
  5
60
102
{ACAD_REACTORS
330
47
102
}
330
47
100
AcDbProxyObject
 90
      499
 91
      503
 93
      241
310
90C312F3422203D2031272D3022000000000000340FC000000000000284000
  0
ACAD_PROXY_OBJECT
  5
61
102
{ACAD_REACTORS
330
47
102
}
330
47
100
AcDbProxyObject
 90
      499
 91
      503
 93
      241
310
90C332F3822203D2031272D3022000000000000360FC000000000000284000
  0
ACAD_PROXY_OBJECT
  5
62
102
{ACAD_REACTORS
330
47
102
}
330
47
100
AcDbProxyObject
 90
      499
 91
      503
 93
      241
310
90C312F3222203D2031272D3022000000000000380FC000000000000284000
  0
ACAD_PROXY_OBJECT
  5
63
102
{ACAD_REACTORS
330
47
102
}
330
47
100
AcDbProxyObject
 90
      499
 91
      503
 93
      241
310
90C332F3422203D2031272D30220000000000003A0FC000000000000284000
  0
ACAD_PROXY_OBJECT
  5
64
102
{ACAD_REACTORS
330
47
102
}
330
47
100
AcDbProxyObject
 90
      499
 91
      503
 93
      161
310
90A3122203D2031272D30224000000000000284000
  0
ACAD_PROXY_OBJECT
  5
65
102
{ACAD_REACTORS
330
47
102
}
330
47
100
AcDbProxyObject
 90
      499
 91
      503
 93
      257
310
90E312D312F3222203D2031272D30220000000000003E0FC000000000000284000
  0
ACAD_PROXY_OBJECT
  5
66
102
{ACAD_REACTORS
330
47
102
}
330
47
100
AcDbProxyObject
 90
      499
 91
      503
 93
      225
310
90A3322203D2031272D302200000000000002100000000000000284000
  0
ACAD_PROXY_OBJECT
  5
67
102
{ACAD_REACTORS
330
47
102
}
330
47
100
AcDbProxyObject
 90
      499
 91
      503
 93
      225
310
90A3622203D2031272D302200000000000006100000000000000284000
  0
ACAD_PROXY_OBJECT
  5
68
102
{ACAD_REACTORS
330
47
102
}
330
47
100
AcDbProxyObject
 90
      499
 91
      503
 93
      249
310
90D31272D3022203D2031272D30220000000000000A100000000000000284000
  0
ACAD_PROXY_OBJECT
  5
2F
102
{ACAD_REACTORS
330
2A
102
}
330
2A
100
AcDbProxyObject
 90
      499
 91
      501
 93
      436
310
42CC9915DA5C99599C985B595049028333333333333E33F0000000000000F90107901411070040501600405405064090741402480A0340
1001
ACAD
1000
AcDbSavedByObjectVersion
1070
     0
  0
ACAD_PROXY_OBJECT
  5
32
102
{ACAD_REACTORS
330
2A
102
}
330
2A
100
AcDbProxyObject
 90
      499
 91
      501
 93
      388
310
4150985CDA58D07406404333333333333E33F0000000000000F90107A41107004050150841D405064090741402480A0350
1001
ACAD
1000
AcDbSavedByObjectVersion
1070
     0
  0
ACAD_PROXY_OBJECT
  5
36
102
{ACAD_REACTORS
330
2A
102
}
330
2A
100
AcDbProxyObject
 90
      499
 91
      501
 93
      428
310
42109C9A59DA1D195B90C409028333333333333E33F0000000000000F9010790141107004050150841D405064090741402480A029950
1001
ACAD
1000
AcDbSavedByObjectVersion
1070
     0
  0
ACAD_PROXY_OBJECT
  5
3A
102
{ACAD_REACTORS
330
2A
102
}
330
2A
100
AcDbProxyObject
 90
      499
 91
      501
 93
      452
310
42D0DBDB1BDC90DA185B99D95104090240C333333333333E33F0000000000000F90108901411070040501508421405064090741402480A0350
1001
ACAD
1000
AcDbSavedByObjectVersion
1070
     0
  0
ACAD_PROXY_OBJECT
  5
34
102
{ACAD_REACTORS
330
2A
102
}
330
2A
100
AcDbProxyObject
 90
      499
 91
      501
 93
      500
310
4290DBDB98D95C1D1D585B10940D028333333333333E33F0000000000000F90107902409070040501000000000018199010841D405064090740C02480A0340
1001
ACAD
1000
AcDbSavedByObjectVersion
1070
     0
  0
ACAD_PROXY_OBJECT
  5
35
102
{ACAD_REACTORS
330
2A
102
}
330
2A
100
AcDbProxyObject
 90
      499
 91
      501
 93
      412
310
40D11A5B50B409028333333333333E33F0000000000000F9010790141107004050150841D405064090741402480A02677FFFFFD0
1001
ACAD
1000
AcDbSavedByObjectVersion
1070
     0
  0
ACAD_PROXY_OBJECT
  5
3D
102
{ACAD_REACTORS
330
2A
102
}
330
2A
100
AcDbProxyObject
 90
      499
 91
      501
 93
      452
310
43115919D950DBDB1BDC93D999916409028333333333333E33F0000000000000F9010790141107004050150841D405064090741402480A0350
1001
ACAD
1000
AcDbSavedByObjectVersion
1070
     0
  0
ACAD_PROXY_OBJECT
  5
39
102
{ACAD_REACTORS
330
2A
102
}
330
2A
100
AcDbProxyObject
 90
      499
 91
      501
 93
      444
310
42D19858D95C185D1D195C9B90F409028333333333333E33F0000000000000F9010790141107004050150841D405064090741402480A0350
1001
ACAD
1000
AcDbSavedByObjectVersion
1070
     0
  0
ACAD_PROXY_OBJECT
  5
2B
102
{ACAD_REACTORS
330
2A
102
}
330
2A
100
AcDbProxyObject
 90
      499
 91
      501
 93
      380
310
41119B185D240901404333333333333E33F0000000000000F9010740A907004050150841D405064090741402480A1B50
1001
ACAD
1000
AcDbSavedByObjectVersion
1070
     0
  0
ACAD_PROXY_OBJECT
  5
2C
102
{ACAD_REACTORS
330
2A
102
}
330
2A
100
AcDbProxyObject
 90
      499
 91
      501
 93
      468
310
43519B185D15DA5D1A115919D95CD0140901404333333333333E33F0000000000000F90107409019070040501600405405064090741402480A1B50
1001
ACAD
1000
AcDbSavedByObjectVersion
1070
     0
  0
ACAD_PROXY_OBJECT
  5
2D
102
{ACAD_REACTORS
330
2A
102
}
330
2A
100
AcDbProxyObject
 90
      499
 91
      501
 93
      404
310
41D1DBDD5C985D5910240902404333333333333E33F0000000000000F9010740A9070040501641D405064090741402480A1B50
1001
ACAD
1000
AcDbSavedByObjectVersion
1070
     0
  0
ACAD_PROXY_OBJECT
  5
2E
102
{ACAD_REACTORS
330
2A
102
}
330
2A
100
AcDbProxyObject
 90
      499
 91
      501
 93
      492
310
4411DBDD5C985D5915DA5D1A115919D95CD0340902404333333333333E33F0000000000000F90107409019070040501600405405064090741402480A1B50
1001
ACAD
1000
AcDbSavedByObjectVersion
1070
     0
  0
ACAD_PROXY_OBJECT
  5
31
102
{ACAD_REACTORS
330
2A
102
}
330
2A
100
AcDbProxyObject
 90
      499
 91
      501
 93
      476
310
41921A5919195B90640502408333333333333E33F0000000000000F901079024090700405020000000000001110200405405064090740C02480A0340
1001
ACAD
1000
AcDbSavedByObjectVersion
1070
     0
  0
ACAD_PROXY_OBJECT
  5
3B
102
{ACAD_REACTORS
330
2A
102
}
330
2A
100
AcDbProxyObject
 90
      499
 91
      501
 93
      428
310
42529A5D1D195C93D999914409028333333333333E33F0000000000000F9010790141107004050150A41D405064090741402480A0350
1001
ACAD
1000
AcDbSavedByObjectVersion
1070
     0
  0
ACAD_PROXY_OBJECT
  5
38
102
{ACAD_REACTORS
330
2A
102
}
330
2A
100
AcDbProxyObject
 90
      499
 91
      501
 93
      444
310
42D31A5B995C185D1D195C9B90E409028333333333333E33F0000000000000F9010790141107004050750841D405064090741402483A0350
1001
ACAD
1000
AcDbSavedByObjectVersion
1070
     0
  0
ACAD_PROXY_OBJECT
  5
3C
102
{ACAD_REACTORS
330
2A
102
}
330
2A
100
AcDbProxyObject
 90
      499
 91
      501
 93
      444
310
42D3DD995C9A185B99D3D999915409028333333333333E33F0000000000000F9010790141107004050150941D405064090741402480A0350
1001
ACAD
1000
AcDbSavedByObjectVersion
1070
     0
  0
ACAD_PROXY_OBJECT
  5
33
102
{ACAD_REACTORS
330
2A
102
}
330
2A
100
AcDbProxyObject
 90
      499
 91
      501
 93
      428
310
425499585B1A5CDD1A58D08409038333333333333E33F0000000000000F9010740A907004050150800405405064090740C02480A1B40
1001
ACAD
1000
AcDbSavedByObjectVersion
1070
     0
  0
ACAD_PROXY_OBJECT
  5
42
102
{ACAD_REACTORS
330
2A
102
}
330
2A
100
AcDbProxyObject
 90
      499
 91
      501
 93
      420
310
4194DA1859195911B40902404333333333333E33F0000000000000F9010740A41107004050150800405405064090840C02480A0B40
1001
ACAD
1000
AcDbSavedByObjectVersion
1070
     0
  0
ACAD_PROXY_OBJECT
  5
41
102
{ACAD_REACTORS
330
2A
102
}
330
2A
100
AcDbProxyObject
 90
      499
 91
      501
 93
      516
310
4454DA18591959081DDA5D1A08195919D95CD1A40902404333333333333E33F0000000000000F901074090142907004050250800405405064090740C02480A0B40
1001
ACAD
1000
AcDbSavedByObjectVersion
1070
     0
  0
ACAD_PROXY_OBJECT
  5
3E
102
{ACAD_REACTORS
330
2A
102
}
330
2A
100
AcDbProxyObject
 90
      499
 91
      501
 93
      532
310
4394DA1859195CC81BD98811DC985E5174090240C333333333333E33F0000000000000F901079024090741D01000000000000111010841D405064090740C02480A0340
1001
ACAD
1000
AcDbSavedByObjectVersion
1070
     0
  0
ACAD_PROXY_OBJECT
  5
3F
102
{ACAD_REACTORS
330
2A
102
}
330
2A
100
AcDbProxyObject
 90
      499
 91
      501
 93
      476
310
41D4DAD95D18DA1E51840502408333333333333E33F0000000000000F901079024090741D01000000000000111010B41D405064090741802480A0340
1001
ACAD
1000
AcDbSavedByObjectVersion
1070
     0
  0
ACAD_PROXY_OBJECT
  5
37
102
{ACAD_REACTORS
330
2A
102
}
330
2A
100
AcDbProxyObject
 90
      499
 91
      501
 93
      412
310
41D51A1A58DAD95B90D409028333333333333E33F0000000000000F9010790141107004050150C41D405064090741402480A0350
1001
ACAD
1000
AcDbSavedByObjectVersion
1070
     0
  0
ACAD_PROXY_OBJECT
  5
30
102
{ACAD_REACTORS
330
2A
102
}
330
2A
100
AcDbProxyObject
 90
      499
 91
      501
 93
      420
310
4255DA5C99599C985B595059028333333333333E33F0000000000000F90107901411070040501600405405064090740C02480A0340
1001
ACAD
1000
AcDbSavedByObjectVersion
1070
     0
  0
ACAD_PROXY_OBJECT
  5
40
102
{ACAD_REACTORS
330
2A
102
}
330
2A
100
AcDbProxyObject
 90
      499
 91
      501
 93
      404
310
41560B54985E51940902404000000000000E03F0000000000000F9010740501907004050150841D405064090740C02480A1B40
1001
ACAD
1000
AcDbSavedByObjectVersion
1070
     0
  0
XRECORD
  5
1E0
102
{ACAD_REACTORS
330
1D6
102
}
330
1D6
100
AcDbXrecord
340
0
  0
XRECORD
  5
1DF
102
{ACAD_REACTORS
330
1D6
102
}
330
1D6
100
AcDbXrecord
 90
        0
  0
XRECORD
  5
1F6
102
{ACAD_REACTORS
330
1D6
102
}
330
1D6
100
AcDbXrecord
1000
DSTYLE
1002
{
1070
   171
 70
     2
1070
   143
 40
25.4
1070
   274
 70
     2
1070
    41
 40
0.18
1070
   141
 40
0.09
1070
   271
 70
     4
1070
    43
 40
0.38
1070
   278
 70
    46
1070
    44
 40
0.18
1070
    42
 40
0.0625
1070
   147
 40
0.09
1070
    77
 70
     0
1070
   272
 70
     4
1070
    73
 70
     1
1070
   172
 70
     0
1070
    74
 70
     1
1070
   283
 70
     1
1070
   340
340
11
1070
   140
 40
0.18
1070
   284
 70
     0
1070
    78
 70
     0
1002
}
  0
XRECORD
  5
1E1
102
{ACAD_REACTORS
330
1D6
102
}
330
1D6
100
AcDbXrecord
  1
{EB6F704C-4D63-45CB-9643-2E78537A763E}
  0
XRECORD
  5
1D9
102
{ACAD_REACTORS
330
1D6
102
}
330
1D6
100
AcDbXrecord
  1

  0
XRECORD
  5
1DE
102
{ACAD_REACTORS
330
1D6
102
}
330
1D6
100
AcDbXrecord
 90
        4
  0
XRECORD
  5
1DB
102
{ACAD_REACTORS
330
1D6
102
}
330
1D6
100
AcDbXrecord
340
1A
  0
XRECORD
  5
1DD
102
{ACAD_REACTORS
330
1D6
102
}
330
1D6
100
AcDbXrecord
 90
    10781
  0
XRECORD
  5
1DC
102
{ACAD_REACTORS
330
1D6
102
}
330
1D6
100
AcDbXrecord
340
19
  0
XRECORD
  5
1E3
102
{ACAD_REACTORS
330
1D6
102
}
330
1D6
100
AcDbXrecord
 40
0.0
  0
XRECORD
  5
1E6
102
{ACAD_REACTORS
330
1D6
102
}
330
1D6
100
AcDbXrecord
340
0
  0
XRECORD
  5
1EC
102
{ACAD_REACTORS
330
1D6
102
}
330
1D6
100
AcDbXrecord
 10
0.0
 20
0.0
 30
0.0
  0
XRECORD
  5
1E8
102
{ACAD_REACTORS
330
1D6
102
}
330
1D6
100
AcDbXrecord
 10
0.0
 20
0.0
 30
0.0
  0
XRECORD
  5
1EB
102
{ACAD_REACTORS
330
1D6
102
}
330
1D6
100
AcDbXrecord
 10
0.0
 20
0.0
 30
0.0
  0
XRECORD
  5
1E9
102
{ACAD_REACTORS
330
1D6
102
}
330
1D6
100
AcDbXrecord
 10
0.0
 20
0.0
 30
0.0
  0
XRECORD
  5
1EA
102
{ACAD_REACTORS
330
1D6
102
}
330
1D6
100
AcDbXrecord
 10
0.0
 20
0.0
 30
0.0
  0
XRECORD
  5
1E7
102
{ACAD_REACTORS
330
1D6
102
}
330
1D6
100
AcDbXrecord
 10
0.0
 20
0.0
 30
0.0
  0
XRECORD
  5
1E4
102
{ACAD_REACTORS
330
1D6
102
}
330
1D6
100
AcDbXrecord
340
0
  0
XRECORD
  5
1E5
102
{ACAD_REACTORS
330
1D6
102
}
330
1D6
100
AcDbXrecord
 70
     0
  0
XRECORD
  5
1DA
102
{ACAD_REACTORS
330
1D6
102
}
330
1D6
100
AcDbXrecord
  1

  0
XRECORD
  5
1D7
102
{ACAD_REACTORS
330
1D6
102
}
330
1D6
100
AcDbXrecord
 90
        1
  0
XRECORD
  5
1D8
102
{ACAD_REACTORS
330
1D6
102
}
330
1D6
100
AcDbXrecord
 90
       70
  0
XRECORD
  5
1EF
102
{ACAD_REACTORS
330
1D6
102
}
330
1D6
100
AcDbXrecord
340
0
  0
XRECORD
  5
1F5
102
{ACAD_REACTORS
330
1D6
102
}
330
1D6
100
AcDbXrecord
 10
0.0
 20
0.0
 30
0.0
  0
XRECORD
  5
1F1
102
{ACAD_REACTORS
330
1D6
102
}
330
1D6
100
AcDbXrecord
 10
0.0
 20
0.0
 30
0.0
  0
XRECORD
  5
1F4
102
{ACAD_REACTORS
330
1D6
102
}
330
1D6
100
AcDbXrecord
 10
0.0
 20
0.0
 30
0.0
  0
XRECORD
  5
1F2
102
{ACAD_REACTORS
330
1D6
102
}
330
1D6
100
AcDbXrecord
 10
0.0
 20
0.0
 30
0.0
  0
XRECORD
  5
1F3
102
{ACAD_REACTORS
330
1D6
102
}
330
1D6
100
AcDbXrecord
 10
0.0
 20
0.0
 30
0.0
  0
XRECORD
  5
1F0
102
{ACAD_REACTORS
330
1D6
102
}
330
1D6
100
AcDbXrecord
 10
0.0
 20
0.0
 30
0.0
  0
XRECORD
  5
1ED
102
{ACAD_REACTORS
330
1D6
102
}
330
1D6
100
AcDbXrecord
340
0
  0
XRECORD
  5
1EE
102
{ACAD_REACTORS
330
1D6
102
}
330
1D6
100
AcDbXrecord
 70
     0
  0
XRECORD
  5
1E2
102
{ACAD_REACTORS
330
1D6
102
}
330
1D6
100
AcDbXrecord
  1
{FAEB1C32-E019-11D5-929B-00C0DF256EC4}
  0
DICTIONARYVAR
  5
200
102
{ACAD_REACTORS
330
1F7
102
}
330
1F7
100
DictionaryVariables
280
     0
  1
1:1
  0
DICTIONARYVAR
  5
1F9
102
{ACAD_REACTORS
330
1F7
102
}
330
1F7
100
DictionaryVariables
280
     0
  1
Standard
  0
DICTIONARYVAR
  5
1F8
102
{ACAD_REACTORS
330
1F7
102
}
330
1F7
100
DictionaryVariables
280
     0
  1
Standard
  0
DICTIONARYVAR
  5
1FC
102
{ACAD_REACTORS
330
1F7
102
}
330
1F7
100
DictionaryVariables
280
     0
  1
2
  0
DICTIONARYVAR
  5
1FD
102
{ACAD_REACTORS
330
1F7
102
}
330
1F7
100
DictionaryVariables
280
     0
  1
1
  0
DICTIONARYVAR
  5
201
102
{ACAD_REACTORS
330
1F7
102
}
330
1F7
100
DictionaryVariables
280
     0
  1
1
  0
DICTIONARY
  5
204
330
45
100
AcDbDictionary
280
     1
  3
ACAD_XREC_ROUNDTRIP
360
205
  0
DICTIONARY
  5
202
330
44
100
AcDbDictionary
280
     1
  3
ACAD_XREC_ROUNDTRIP
360
203
  0
DICTIONARY
  5
206
330
46
100
AcDbDictionary
280
     1
  3
ACAD_XREC_ROUNDTRIP
360
207
  0
XRECORD
  5
205
102
{ACAD_REACTORS
330
204
102
}
330
204
100
AcDbXrecord
102
MATERIAL
148
0.0
149
0.0
149
0.0
 93
        0
 94
      127
282
     0
 72
     1
 77
     1
171
     1
175
     1
179
     1
273
     0
  0
XRECORD
  5
203
102
{ACAD_REACTORS
330
202
102
}
330
202
100
AcDbXrecord
102
MATERIAL
148
0.0
149
0.0
149
0.0
 93
        0
 94
      127
282
     0
 72
     1
 77
     1
171
     1
175
     1
179
     1
273
     0
  0
XRECORD
  5
207
102
{ACAD_REACTORS
330
206
102
}
330
206
100
AcDbXrecord
102
MATERIAL
148
0.0
149
0.0
149
0.0
 93
        0
 94
      127
282
     0
 72
     1
 77
     1
171
     1
175
     1
179
     1
273
     0
  0
ENDSEC
  0
EOF
