999
dxfrw 0.6.3
  0
SECTION
  2
HEADER
  9
$ACADVER
  1
AC1021
  9
$DWGCODEPAGE
  3
ANSI_936
  9
$INSBASE
 10
0
 20
0
 30
0
  9
$EXTMIN
 10
-0.4825502516487177
 20
0
 30
0
  9
$EXTMAX
 10
99.51744974835128
 20
90.99999999999994
 30
0
  9
$LIMMIN
 10
0
 20
0
  9
$LIMMAX
 10
420
 20
297
  9
$ORTHOMODE
 70
    0
  9
$REGENMODE
 70
    1
  9
$FILLMODE
 70
    1
  9
$QTEXTMODE
 70
    0
  9
$MIRRTEXT
 70
    0
  9
$LTSCALE
 40
0.5
  9
$ATTMODE
 70
    1
  9
$TEXTSIZE
 40
2.5
  9
$TRACEWID
 40
1
  9
$TEXTSTYLE
  7
Standard
  9
$CLAYER
  8
0
  9
$CELTYPE
  6
ByLayer
  9
$CECOLOR
 62
    0
  9
$CELTSCALE
 40
0.5
  9
$DISPSILH
 70
    0
  9
$DIMSCALE
 40
1
  9
$DIMASZ
 40
1.1
  9
$DIMEXO
 40
0.82
  9
$DIMDLI
 40
5.25
  9
$DIMRND
 40
0
  9
$DIMDLE
 40
0
  9
$DIMEXE
 40
0.98
  9
$DIMTP
 40
0
  9
$DIMTM
 40
0
  9
$DIMTXT
 40
3
  9
$DIMCEN
 40
0
  9
$DIMTSZ
 40
0
  9
$DIMTOL
 70
    0
  9
$DIMLIM
 70
    0
  9
$DIMTIH
 70
    0
  9
$DIMTOH
 70
    0
  9
$DIMSE1
 70
    0
  9
$DIMSE2
 70
    0
  9
$DIMTAD
 70
    1
  9
$DIMZIN
 70
    8
  9
$DIMBLK
  1

  9
$DIMASO
 70
    1
  9
$DIMSHO
 70
    1
  9
$DIMPOST
  1

  9
$DIMAPOST
  1

  9
$DIMALT
 70
    0
  9
$DIMALTD
 70
    3
  9
$DIMALTF
 40
0.03937007874016
  9
$DIMLFAC
 40
1
  9
$DIMTOFL
 70
    0
  9
$DIMTVP
 40
0
  9
$DIMTIX
 70
    0
  9
$DIMSOXD
 70
    0
  9
$DIMSAH
 70
    0
  9
$DIMBLK1
  1

  9
$DIMBLK2
  1

  9
$DIMSTYLE
  2
1-1
  9
$DIMCLRD
 70
    4
  9
$DIMCLRE
 70
    6
  9
$DIMCLRT
 70
    0
  9
$DIMTFAC
 40
1
  9
$DIMGAP
 40
0.625
  9
$DIMJUST
 70
    0
  9
$DIMSD1
 70
    0
  9
$DIMSD2
 70
    0
  9
$DIMTOLJ
 70
    0
  9
$DIMTZIN
 70
    8
  9
$DIMALTZ
 70
    0
  9
$DIMALTTZ
 70
    0
  9
$DIMUPT
 70
    0
  9
$DIMDEC
 70
    2
  9
$DIMTDEC
 70
    2
  9
$DIMALTU
 70
    2
  9
$DIMALTTD
 70
    3
  9
$DIMTXSTY
  7
����
  9
$DIMAUNIT
 70
    0
  9
$DIMADEC
 70
    2
  9
$DIMALTRND
 40
0
  9
$DIMAZIN
 70
    2
  9
$DIMDSEP
 70
   46
  9
$DIMATFIT
 70
    3
  9
$DIMFRAC
 70
    0
  9
$DIMLDRBLK
  1

  9
$DIMLUNIT
 70
    2
  9
$DIMLWD
 70
   18
  9
$DIMLWE
 70
   18
  9
$DIMTMOVE
 70
    0
  9
$DIMFXL
 40
1
  9
$DIMFXLON
 70
    0
  9
$DIMJOGANG
 40
0.7854
  9
$DIMTFILL
 70
    0
  9
$DIMTFILLCLR
 70
    0
  9
$DIMARCSYM
 70
    0
  9
$DIMLTYPE
  6

  9
$DIMLTEX1
  6

  9
$DIMLTEX2
  6

  9
$LUNITS
 70
    2
  9
$LUPREC
 70
    4
  9
$SKETCHINC
 40
1
  9
$FILLETRAD
 40
0.5
  9
$AUNITS
 70
    0
  9
$AUPREC
 70
    0
  9
$MENU
  1
.
  9
$ELEVATION
 40
0
  9
$PELEVATION
 40
0
  9
$THICKNESS
 40
0
  9
$LIMCHECK
 70
    0
  9
$CHAMFERA
 40
0
  9
$CHAMFERB
 40
0
  9
$CHAMFERC
 40
0
  9
$CHAMFERD
 40
0
  9
$SKPOLY
 70
    0
  9
$USRTIMER
 70
    1
  9
$ANGBASE
 50
0
  9
$ANGDIR
 70
    0
  9
$PDMODE
 70
   35
  9
$PDSIZE
 40
0
  9
$PLINEWID
 40
0
  9
$SPLFRAME
 70
    0
  9
$SPLINETYPE
 70
    6
  9
$SPLINESEGS
 70
    8
  9
$HANDSEED
  5
20000
  9
$SURFTAB1
 70
    6
  9
$SURFTAB2
 70
    6
  9
$SURFTYPE
 70
    6
  9
$SURFU
 70
    6
  9
$SURFV
 70
    6
  9
$UCSBASE
  2

  9
$UCSNAME
  2

  9
$UCSORG
 10
0
 20
0
 30
0
  9
$UCSXDIR
 10
1
 20
0
 30
0
  9
$UCSYDIR
 10
0
 20
1
 30
0
  9
$UCSORTHOREF
  2

  9
$UCSORTHOVIEW
 70
    0
  9
$UCSORGTOP
 10
0
 20
0
 30
0
  9
$UCSORGBOTTOM
 10
0
 20
0
 30
0
  9
$UCSORGLEFT
 10
0
 20
0
 30
0
  9
$UCSORGRIGHT
 10
0
 20
0
 30
0
  9
$UCSORGFRONT
 10
0
 20
0
 30
0
  9
$UCSORGBACK
 10
0
 20
0
 30
0
  9
$PUCSBASE
  2

  9
$PUCSNAME
  2

  9
$PUCSORG
 10
0
 20
0
 30
0
  9
$PUCSXDIR
 10
1
 20
0
 30
0
  9
$PUCSYDIR
 10
0
 20
1
 30
0
  9
$PUCSORTHOREF
  2

  9
$PUCSORTHOVIEW
 70
    0
  9
$PUCSORGTOP
 10
0
 20
0
 30
0
  9
$PUCSORGBOTTOM
 10
0
 20
0
 30
0
  9
$PUCSORGLEFT
 10
0
 20
0
 30
0
  9
$PUCSORGRIGHT
 10
0
 20
0
 30
0
  9
$PUCSORGFRONT
 10
0
 20
0
 30
0
  9
$PUCSORGBACK
 10
0
 20
0
 30
0
  9
$USERI1
 70
    0
  9
$USERI2
 70
    0
  9
$USERI3
 70
    0
  9
$USERI4
 70
    0
  9
$USERI5
 70
    0
  9
$USERR1
 40
0
  9
$USERR2
 40
0
  9
$USERR3
 40
0
  9
$USERR4
 40
0
  9
$USERR5
 40
0
  9
$WORLDVIEW
 70
    1
  9
$SHADEDGE
 70
    3
  9
$SHADEDIF
 70
   70
  9
$TILEMODE
 70
    1
  9
$MAXACTVP
 70
   64
  9
$PINSBASE
 10
0
 20
0
 30
0
  9
$PLIMCHECK
 70
    0
  9
$PEXTMIN
 10
0
 20
0
 30
0
  9
$PEXTMAX
 10
0
 20
0
 30
0
  9
$GRIDMODE
 70
    0
  9
$SNAPSTYLE
 70
    0
  9
$PLIMMIN
 10
0
 20
0
  9
$PLIMMAX
 10
12
 20
9
  9
$UNITMODE
 70
    0
  9
$VISRETAIN
 70
    1
  9
$PLINEGEN
 70
    0
  9
$PSLTSCALE
 70
    1
  9
$TREEDEPTH
 70
 3020
  9
$CMLSTYLE
  2
Standard
  9
$CMLJUST
 70
    0
  9
$CMLSCALE
 40
20
  9
$PROXYGRAPHICS
 70
    1
  9
$MEASUREMENT
 70
    1
  9
$CELWEIGHT
370
   -3
  9
$ENDCAPS
280
    0
  9
$JOINSTYLE
280
    0
  9
$LWDISPLAY
290
    0
  9
$INSUNITS
 70
    4
  9
$HYPERLINKBASE
  1

  9
$STYLESHEET
  1

  9
$XEDIT
290
    1
  9
$CEPSNTYPE
380
    0
  9
$PSTYLEMODE
290
    1
  9
$EXTNAMES
290
    1
  9
$PSVPSCALE
 40
0
  9
$OLESTARTUP
290
    0
  9
$SORTENTS
280
  127
  9
$INDEXCTL
280
    0
  9
$HIDETEXT
280
    1
  9
$XCLIPFRAME
290
    0
  9
$HALOGAP
280
    0
  9
$OBSCOLOR
 70
  257
  9
$OBSLTYPE
280
    0
  9
$INTERSECTIONDISPLAY
280
    0
  9
$INTERSECTIONCOLOR
 70
  257
  9
$DIMASSOC
280
    2
  9
$PROJECTNAME
  1

  9
$CAMERADISPLAY
290
    0
  9
$LENSLENGTH
 40
50
  9
$CAMERAHEIGHT
 40
0
  9
$STEPSPERSEC
 40
2
  9
$STEPSIZE
 40
50
  9
$3DDWFPREC
 40
2
  9
$PSOLWIDTH
 40
5
  9
$PSOLHEIGHT
 40
80
  9
$LOFTANG1
 40
1.570796326794897
  9
$LOFTANG2
 40
1.570796326794897
  9
$LOFTMAG1
 40
0
  9
$LOFTMAG2
 40
0
  9
$LOFTPARAM
 70
    7
  9
$LOFTNORMALS
280
    1
  9
$LATITUDE
 40
1
  9
$LONGITUDE
 40
1
  9
$NORTHDIRECTION
 40
0
  9
$TIMEZONE
 70
-8000
  9
$LIGHTGLYPHDISPLAY
280
    1
  9
$TILEMODELIGHTSYNCH
280
    1
  9
$SOLIDHIST
280
    1
  9
$SHOWHIST
280
    1
  9
$DWFFRAME
280
    2
  9
$DGNFRAME
280
    0
  9
$REALWORLDSCALE
290
    1
  9
$INTERFERECOLOR
 62
    1
  9
$CSHADOW
280
    0
  9
$SHADOWPLANELOCATION
 40
0
  0
ENDSEC
  0
SECTION
  2
CLASSES
  0
ENDSEC
  0
SECTION
  2
TABLES
  0
TABLE
  2
VPORT
  5
8
330
0
100
AcDbSymbolTable
 70
    1
  0
VPORT
  5
31
330
2
100
AcDbSymbolTableRecord
100
AcDbViewportTableRecord
  2
*ACTIVE
 70
    0
 10
0
 20
0
 11
1
 21
1
 12
91.99856282947977
 22
82.46805632071759
 13
0
 23
0
 14
10
 24
10
 15
10
 25
10
 16
0
 26
0
 36
1
 17
0
 27
0
 37
0
 40
266.4651819796771
 41
0.9364963503649635
 42
50
 43
0
 44
0
 50
0
 51
0
 71
    0
 72
  100
 73
    1
 74
    3
 75
    0
 76
    0
 77
    0
 78
    0
281
    0
 65
    1
110
0
120
0
130
0
111
1
121
0
131
0
112
0
122
1
132
0
 79
    0
146
0
348
10020
 60
    7
 61
    5
292
1
282
    1
141
0
142
0
 63
  250
421
3358443
  0
ENDTAB
  0
TABLE
  2
LTYPE
  5
5
330
0
100
AcDbSymbolTable
 70
    4
  0
LTYPE
  5
14
330
5
100
AcDbSymbolTableRecord
100
AcDbLinetypeTableRecord
  2
ByBlock
 70
    0
  3

 72
   65
 73
    0
 40
0
  0
LTYPE
  5
15
330
5
100
AcDbSymbolTableRecord
100
AcDbLinetypeTableRecord
  2
ByLayer
 70
    0
  3

 72
   65
 73
    0
 40
0
  0
LTYPE
  5
16
330
5
100
AcDbSymbolTableRecord
100
AcDbLinetypeTableRecord
  2
Continuous
 70
    0
  3
Solid line
 72
   65
 73
    0
 40
0
  0
LTYPE
  5
32
330
5
100
AcDbSymbolTableRecord
100
AcDbLinetypeTableRecord
  2
DOT
 70
    0
  3
Dot . . . . . . . . . . . . . . . . . . . . . .
 72
   65
 73
    2
 40
6.35
 49
0
 74
    0
 49
-6.35
 74
    0
  0
LTYPE
  5
33
330
5
100
AcDbSymbolTableRecord
100
AcDbLinetypeTableRecord
  2
DOTTINY
 70
    0
  3
Dot (.15x) .....................................
 72
   65
 73
    2
 40
0.9525
 49
0
 74
    0
 49
-0.9525
 74
    0
  0
LTYPE
  5
34
330
5
100
AcDbSymbolTableRecord
100
AcDbLinetypeTableRecord
  2
DOT2
 70
    0
  3
Dot (.5x) .....................................
 72
   65
 73
    2
 40
3.175
 49
0
 74
    0
 49
-3.175
 74
    0
  0
LTYPE
  5
35
330
5
100
AcDbSymbolTableRecord
100
AcDbLinetypeTableRecord
  2
DOTX2
 70
    0
  3
Dot (2x) .  .  .  .  .  .  .  .  .  .  .  .  .
 72
   65
 73
    2
 40
12.7
 49
0
 74
    0
 49
-12.7
 74
    0
  0
LTYPE
  5
36
330
5
100
AcDbSymbolTableRecord
100
AcDbLinetypeTableRecord
  2
DASHED
 70
    0
  3
Dashed _ _ _ _ _ _ _ _ _ _ _ _ _ _ _ _ _
 72
   65
 73
    2
 40
19.05
 49
12.7
 74
    0
 49
-6.35
 74
    0
  0
LTYPE
  5
37
330
5
100
AcDbSymbolTableRecord
100
AcDbLinetypeTableRecord
  2
DASHEDTINY
 70
    0
  3
Dashed (.15x) _ _ _ _ _ _ _ _ _ _ _ _ _ _ _ _ _
 72
   65
 73
    2
 40
2.8575
 49
1.905
 74
    0
 49
-0.9525
 74
    0
  0
LTYPE
  5
38
330
5
100
AcDbSymbolTableRecord
100
AcDbLinetypeTableRecord
  2
DASHED2
 70
    0
  3
Dashed (.5x) _ _ _ _ _ _ _ _ _ _ _ _ _ _ _ _ _
 72
   65
 73
    2
 40
9.524999999999999
 49
6.35
 74
    0
 49
-3.175
 74
    0
  0
LTYPE
  5
39
330
5
100
AcDbSymbolTableRecord
100
AcDbLinetypeTableRecord
  2
DASHEDX2
 70
    0
  3
Dashed (2x) ____  ____  ____  ____  ____  ___
 72
   65
 73
    2
 40
38.09999999999999
 49
25.4
 74
    0
 49
-12.7
 74
    0
  0
LTYPE
  5
3A
330
5
100
AcDbSymbolTableRecord
100
AcDbLinetypeTableRecord
  2
DASHDOT
 70
    0
  3
Dash dot __ . __ . __ . __ . __ . __ . __ . __
 72
   65
 73
    4
 40
25.4
 49
12.7
 74
    0
 49
-6.35
 74
    0
 49
0
 74
    0
 49
-6.35
 74
    0
  0
LTYPE
  5
3B
330
5
100
AcDbSymbolTableRecord
100
AcDbLinetypeTableRecord
  2
DASHDOTTINY
 70
    0
  3
Dash dot (.15x) _._._._._._._._._._._._._._._.
 72
   65
 73
    4
 40
3.81
 49
1.905
 74
    0
 49
-0.9525
 74
    0
 49
0
 74
    0
 49
-0.9525
 74
    0
  0
LTYPE
  5
3C
330
5
100
AcDbSymbolTableRecord
100
AcDbLinetypeTableRecord
  2
DASHDOT2
 70
    0
  3
Dash dot (.5x) _._._._._._._._._._._._._._._.
 72
   65
 73
    4
 40
12.7
 49
6.35
 74
    0
 49
-3.175
 74
    0
 49
0
 74
    0
 49
-3.175
 74
    0
  0
LTYPE
  5
3D
330
5
100
AcDbSymbolTableRecord
100
AcDbLinetypeTableRecord
  2
DASHDOTX2
 70
    0
  3
Dash dot (2x) ____  .  ____  .  ____  .  ___
 72
   65
 73
    4
 40
50.8
 49
25.4
 74
    0
 49
-12.7
 74
    0
 49
0
 74
    0
 49
-12.7
 74
    0
  0
LTYPE
  5
3E
330
5
100
AcDbSymbolTableRecord
100
AcDbLinetypeTableRecord
  2
DIVIDE
 70
    0
  3
Divide ____ . . ____ . . ____ . . ____ . . ____
 72
   65
 73
    6
 40
31.75
 49
12.7
 74
    0
 49
-6.35
 74
    0
 49
0
 74
    0
 49
-6.35
 74
    0
 49
0
 74
    0
 49
-6.35
 74
    0
  0
LTYPE
  5
3F
330
5
100
AcDbSymbolTableRecord
100
AcDbLinetypeTableRecord
  2
DIVIDETINY
 70
    0
  3
Divide (.15x) __..__..__..__..__..__..__..__.._
 72
   65
 73
    6
 40
4.7625
 49
1.905
 74
    0
 49
-0.9525
 74
    0
 49
0
 74
    0
 49
-0.9525
 74
    0
 49
0
 74
    0
 49
-0.9525
 74
    0
  0
LTYPE
  5
40
330
5
100
AcDbSymbolTableRecord
100
AcDbLinetypeTableRecord
  2
DIVIDE2
 70
    0
  3
Divide (.5x) __..__..__..__..__..__..__..__.._
 72
   65
 73
    6
 40
15.875
 49
6.35
 74
    0
 49
-3.175
 74
    0
 49
0
 74
    0
 49
-3.175
 74
    0
 49
0
 74
    0
 49
-3.175
 74
    0
  0
LTYPE
  5
41
330
5
100
AcDbSymbolTableRecord
100
AcDbLinetypeTableRecord
  2
DIVIDEX2
 70
    0
  3
Divide (2x) ________  .  .  ________  .  .  _
 72
   65
 73
    6
 40
63.5
 49
25.4
 74
    0
 49
-12.7
 74
    0
 49
0
 74
    0
 49
-12.7
 74
    0
 49
0
 74
    0
 49
-12.7
 74
    0
  0
LTYPE
  5
42
330
5
100
AcDbSymbolTableRecord
100
AcDbLinetypeTableRecord
  2
BORDER
 70
    0
  3
Border __ __ . __ __ . __ __ . __ __ . __ __ .
 72
   65
 73
    6
 40
44.45
 49
12.7
 74
    0
 49
-6.35
 74
    0
 49
12.7
 74
    0
 49
-6.35
 74
    0
 49
0
 74
    0
 49
-6.35
 74
    0
  0
LTYPE
  5
43
330
5
100
AcDbSymbolTableRecord
100
AcDbLinetypeTableRecord
  2
BORDERTINY
 70
    0
  3
Border (.15x) __.__.__.__.__.__.__.__.__.__.__.
 72
   65
 73
    6
 40
6.6675
 49
1.905
 74
    0
 49
-0.9525
 74
    0
 49
1.905
 74
    0
 49
-0.9525
 74
    0
 49
0
 74
    0
 49
-0.9525
 74
    0
  0
LTYPE
  5
44
330
5
100
AcDbSymbolTableRecord
100
AcDbLinetypeTableRecord
  2
BORDER2
 70
    0
  3
Border (.5x) __.__.__.__.__.__.__.__.__.__.__.
 72
   65
 73
    6
 40
22.225
 49
6.35
 74
    0
 49
-3.175
 74
    0
 49
6.35
 74
    0
 49
-3.175
 74
    0
 49
0
 74
    0
 49
-3.175
 74
    0
  0
LTYPE
  5
45
330
5
100
AcDbSymbolTableRecord
100
AcDbLinetypeTableRecord
  2
BORDERX2
 70
    0
  3
Border (2x) ____  ____  .  ____  ____  .  ___
 72
   65
 73
    6
 40
88.89999999999999
 49
25.4
 74
    0
 49
-12.7
 74
    0
 49
25.4
 74
    0
 49
-12.7
 74
    0
 49
0
 74
    0
 49
-12.7
 74
    0
  0
LTYPE
  5
46
330
5
100
AcDbSymbolTableRecord
100
AcDbLinetypeTableRecord
  2
CENTER
 70
    0
  3
Center ____ _ ____ _ ____ _ ____ _ ____ _ ____
 72
   65
 73
    4
 40
50.8
 49
31.75
 74
    0
 49
-6.35
 74
    0
 49
6.35
 74
    0
 49
-6.35
 74
    0
  0
LTYPE
  5
47
330
5
100
AcDbSymbolTableRecord
100
AcDbLinetypeTableRecord
  2
CENTERTINY
 70
    0
  3
Center (.15x) ___ _ ___ _ ___ _ ___ _ ___ _ ___
 72
   65
 73
    4
 40
7.619999999999999
 49
4.7625
 74
    0
 49
-0.9525
 74
    0
 49
0.9525
 74
    0
 49
-0.9525
 74
    0
  0
LTYPE
  5
48
330
5
100
AcDbSymbolTableRecord
100
AcDbLinetypeTableRecord
  2
CENTER2
 70
    0
  3
Center (.5x) ___ _ ___ _ ___ _ ___ _ ___ _ ___
 72
   65
 73
    4
 40
28.575
 49
19.05
 74
    0
 49
-3.175
 74
    0
 49
3.175
 74
    0
 49
-3.175
 74
    0
  0
LTYPE
  5
49
330
5
100
AcDbSymbolTableRecord
100
AcDbLinetypeTableRecord
  2
CENTERX2
 70
    0
  3
Center (2x) ________  __  ________  __  _____
 72
   65
 73
    4
 40
101.6
 49
63.5
 74
    0
 49
-12.7
 74
    0
 49
12.7
 74
    0
 49
-12.7
 74
    0
  0
ENDTAB
  0
TABLE
  2
LAYER
  5
2
330
0
100
AcDbSymbolTable
 70
    1
  0
LAYER
  5
10
330
2
100
AcDbSymbolTableRecord
100
AcDbLayerTableRecord
  2
0
 70
    0
 62
    7
  6
CONTINUOUS
370
   -3
390
F
  0
LAYER
  5
4A
330
2
100
AcDbSymbolTableRecord
100
AcDbLayerTableRecord
  2
02___PRT_ALL_AXES
 70
    0
 62
    7
  6
CONTINUOUS
370
   -3
390
F
  0
LAYER
  5
4B
330
2
100
AcDbSymbolTableRecord
100
AcDbLayerTableRecord
  2
2
 70
    0
 62
    3
  6
CONTINUOUS
370
   -3
390
F
  0
LAYER
  5
4C
330
2
100
AcDbSymbolTableRecord
100
AcDbLayerTableRecord
  2
256
 70
    0
 62
    7
  6
CONTINUOUS
370
   -3
390
F
  0
LAYER
  5
4D
330
2
100
AcDbSymbolTableRecord
100
AcDbLayerTableRecord
  2
Defpoints
 70
    0
 62
    7
  6
CONTINUOUS
290
0
370
   -3
390
F
  0
LAYER
  5
4E
330
2
100
AcDbSymbolTableRecord
100
AcDbLayerTableRecord
  2
FORMAT
 70
    0
 62
    7
  6
CONTINUOUS
370
   -3
390
F
  0
LAYER
  5
4F
330
2
100
AcDbSymbolTableRecord
100
AcDbLayerTableRecord
  2
OUTLINE
 70
    0
 62
    8
  6
CONTINUOUS
370
   -3
390
F
  0
LAYER
  5
50
330
2
100
AcDbSymbolTableRecord
100
AcDbLayerTableRecord
  2
SLD-0
 70
    0
 62
  179
  6
CONTINUOUS
370
   -3
390
F
  0
LAYER
  5
51
330
2
100
AcDbSymbolTableRecord
100
AcDbLayerTableRecord
  2
cut
 70
    0
 62
    7
  6
CONTINUOUS
370
   30
390
F
  0
LAYER
  5
52
330
2
100
AcDbSymbolTableRecord
100
AcDbLayerTableRecord
  2
dim
 70
    0
 62
    4
  6
CONTINUOUS
370
   -3
390
F
  0
LAYER
  5
53
330
2
100
AcDbSymbolTableRecord
100
AcDbLayerTableRecord
  2
ͼ��
 70
    0
 62
    5
  6
CONTINUOUS
370
   -3
390
F
  0
LAYER
  5
54
330
2
100
AcDbSymbolTableRecord
100
AcDbLayerTableRecord
  2
ͼ����
 70
    0
 62
    7
  6
CONTINUOUS
370
   -3
390
F
  0
LAYER
  5
55
330
2
100
AcDbSymbolTableRecord
100
AcDbLayerTableRecord
  2
����
 70
    0
 62
    4
  6
CONTINUOUS
370
   -3
390
F
  0
ENDTAB
  0
TABLE
  2
STYLE
  5
3
330
0
100
AcDbSymbolTable
 70
    3
  0
STYLE
  5
56
330
2
100
AcDbSymbolTableRecord
100
AcDbTextStyleTableRecord
  2
zhijin
 70
    0
 40
0
 41
1
 50
0
 71
    0
 42
1
  3
zhijin
  4

  0
STYLE
  5
57
330
2
100
AcDbSymbolTableRecord
100
AcDbTextStyleTableRecord
  2
sldtextstyle6
 70
    0
 40
0
 41
1
 50
0
 71
    0
 42
1
  3
sldtextstyle6
  4

  0
STYLE
  5
58
330
2
100
AcDbSymbolTableRecord
100
AcDbTextStyleTableRecord
  2
standard
 70
    0
 40
0
 41
1
 50
0
 71
    0
 42
1
  3
standard
  4

  0
ENDTAB
  0
TABLE
  2
VIEW
  5
6
330
0
100
AcDbSymbolTable
 70
    0
  0
ENDTAB
  0
TABLE
  2
UCS
  5
7
330
0
100
AcDbSymbolTable
 70
    0
  0
ENDTAB
  0
TABLE
  2
APPID
  5
9
330
0
100
AcDbSymbolTable
 70
    1
  0
APPID
  5
12
330
9
100
AcDbSymbolTableRecord
100
AcDbRegAppTableRecord
  2
ACAD
 70
    0
  0
APPID
  5
59
330
9
100
AcDbSymbolTableRecord
100
AcDbRegAppTableRecord
  2
LibreCad
 70
    0
  0
ENDTAB
  0
TABLE
  2
DIMSTYLE
  5
A
330
0
100
AcDbSymbolTable
 70
    1
100
AcDbDimStyleTable
 71
    1
  0
DIMSTYLE
105
5A
330
A
100
AcDbSymbolTableRecord
100
AcDbDimStyleTableRecord
  2
Standard
 70
    0
 40
1
 41
1.1
 42
0.82
 43
0.38
 44
0.98
 45
0
 46
0
 47
0
 48
0
 49
1
140
3
141
0.09
142
0
143
25.4
144
1
145
0
146
1
147
0.625
148
0
 71
    0
 72
    0
 73
    0
 74
    1
 75
    0
 76
    0
 77
    0
 78
    8
 79
    2
170
    0
171
    2
172
    0
173
    0
174
    0
175
    0
176
    4
177
    6
178
    0
179
    2
271
    2
272
    4
273
    2
274
    2
275
    0
276
    0
277
    2
278
   46
279
    0
280
    0
281
    0
282
    0
283
    1
284
    0
285
    0
286
    0
288
    0
289
    3
340
����
341

371
   18
372
   18
  0
ENDTAB
  0
TABLE
  2
BLOCK_RECORD
  5
1
330
0
100
AcDbSymbolTable
 70
    2
  0
BLOCK_RECORD
  5
1F
330
1
100
AcDbSymbolTableRecord
100
AcDbBlockTableRecord
  2
*Model_Space
 70
    0
280
    1
281
    0
  0
BLOCK_RECORD
  5
1E
330
1
100
AcDbSymbolTableRecord
100
AcDbBlockTableRecord
  2
*Paper_Space
 70
    0
280
    1
281
    0
  0
BLOCK_RECORD
  5
5B
330
1
100
AcDbSymbolTableRecord
100
AcDbBlockTableRecord
  2
_ArchTick
 70
    0
280
    1
281
    0
  0
BLOCK_RECORD
  5
5E
330
1
100
AcDbSymbolTableRecord
100
AcDbBlockTableRecord
  2
_OPEN30
 70
    0
280
    1
281
    0
  0
BLOCK_RECORD
  5
61
330
1
100
AcDbSymbolTableRecord
100
AcDbBlockTableRecord
  2
A$C3BD4745C
 70
    0
280
    1
281
    0
  0
BLOCK_RECORD
  5
64
330
1
100
AcDbSymbolTableRecord
100
AcDbBlockTableRecord
  2
A$C75D8710B
 70
    0
280
    1
281
    0
  0
BLOCK_RECORD
  5
67
330
1
100
AcDbSymbolTableRecord
100
AcDbBlockTableRecord
  2
A$C40033F47
 70
    0
280
    1
281
    0
  0
BLOCK_RECORD
  5
6A
330
1
100
AcDbSymbolTableRecord
100
AcDbBlockTableRecord
  2
_D_9
 70
    0
280
    1
281
    0
  0
BLOCK_RECORD
  5
6D
330
1
100
AcDbSymbolTableRecord
100
AcDbBlockTableRecord
  2
_D_10
 70
    0
280
    1
281
    0
  0
BLOCK_RECORD
  5
70
330
1
100
AcDbSymbolTableRecord
100
AcDbBlockTableRecord
  2
_D_11
 70
    0
280
    1
281
    0
  0
BLOCK_RECORD
  5
73
330
1
100
AcDbSymbolTableRecord
100
AcDbBlockTableRecord
  2
_D
 70
    0
280
    1
281
    0
  0
BLOCK_RECORD
  5
76
330
1
100
AcDbSymbolTableRecord
100
AcDbBlockTableRecord
  2
_D_1
 70
    0
280
    1
281
    0
  0
BLOCK_RECORD
  5
79
330
1
100
AcDbSymbolTableRecord
100
AcDbBlockTableRecord
  2
_D_2
 70
    0
280
    1
281
    0
  0
BLOCK_RECORD
  5
7C
330
1
100
AcDbSymbolTableRecord
100
AcDbBlockTableRecord
  2
_D_3
 70
    0
280
    1
281
    0
  0
BLOCK_RECORD
  5
7F
330
1
100
AcDbSymbolTableRecord
100
AcDbBlockTableRecord
  2
_NONE
 70
    0
280
    1
281
    0
  0
BLOCK_RECORD
  5
82
330
1
100
AcDbSymbolTableRecord
100
AcDbBlockTableRecord
  2
_D_4
 70
    0
280
    1
281
    0
  0
BLOCK_RECORD
  5
85
330
1
100
AcDbSymbolTableRecord
100
AcDbBlockTableRecord
  2
_D_5
 70
    0
280
    1
281
    0
  0
BLOCK_RECORD
  5
88
330
1
100
AcDbSymbolTableRecord
100
AcDbBlockTableRecord
  2
_D_6
 70
    0
280
    1
281
    0
  0
BLOCK_RECORD
  5
8B
330
1
100
AcDbSymbolTableRecord
100
AcDbBlockTableRecord
  2
_D_7
 70
    0
280
    1
281
    0
  0
BLOCK_RECORD
  5
8E
330
1
100
AcDbSymbolTableRecord
100
AcDbBlockTableRecord
  2
_D_8
 70
    0
280
    1
281
    0
  0
BLOCK_RECORD
  5
91
330
1
100
AcDbSymbolTableRecord
100
AcDbBlockTableRecord
  2
_D_12
 70
    0
280
    1
281
    0
  0
BLOCK_RECORD
  5
94
330
1
100
AcDbSymbolTableRecord
100
AcDbBlockTableRecord
  2
_D_13
 70
    0
280
    1
281
    0
  0
BLOCK_RECORD
  5
97
330
1
100
AcDbSymbolTableRecord
100
AcDbBlockTableRecord
  2
_D_14
 70
    0
280
    1
281
    0
  0
BLOCK_RECORD
  5
9A
330
1
100
AcDbSymbolTableRecord
100
AcDbBlockTableRecord
  2
_D_15
 70
    0
280
    1
281
    0
  0
BLOCK_RECORD
  5
9D
330
1
100
AcDbSymbolTableRecord
100
AcDbBlockTableRecord
  2
_D_16
 70
    0
280
    1
281
    0
  0
ENDTAB
  0
ENDSEC
  0
SECTION
  2
BLOCKS
  0
BLOCK
  5
20
330
1F
100
AcDbEntity
  8
0
100
AcDbBlockBegin
  2
*Model_Space
 70
    0
 10
0
 20
0
 30
0
  3
*Model_Space
  1

  0
ENDBLK
  5
21
330
1F
100
AcDbEntity
  8
0
100
AcDbBlockEnd
  0
BLOCK
  5
1C
330
1B
100
AcDbEntity
  8
0
100
AcDbBlockBegin
  2
*Paper_Space
 70
    0
 10
0
 20
0
 30
0
  3
*Paper_Space
  1

  0
ENDBLK
  5
1D
330
1F
100
AcDbEntity
  8
0
100
AcDbBlockEnd
  0
BLOCK
  5
5C
330
5B
100
AcDbEntity
  8
0
100
AcDbBlockBegin
  2
_ArchTick
 70
    0
 10
0
 20
0
  3
_ArchTick
  1

  0
LWPOLYLINE
  5
A0
100
AcDbEntity
  8
0
  6
ByBlock
 62
    0
370
   -1
100
AcDbPolyline
 90
    2
 70
    0
 43
0
 10
-0.5
 20
-0.5
 10
0.5
 20
0.5
  0
ENDBLK
  5
5D
330
5B
100
AcDbEntity
  8
0
100
AcDbBlockEnd
  0
BLOCK
  5
5F
330
5E
100
AcDbEntity
  8
0
100
AcDbBlockBegin
  2
_OPEN30
 70
    0
 10
0
 20
0
  3
_OPEN30
  1

  0
LINE
  5
A1
100
AcDbEntity
  8
0
  6
ByBlock
 62
    0
370
   -1
100
AcDbLine
 10
-1
 20
0.26794919
 11
0
 21
0
  0
LINE
  5
A2
100
AcDbEntity
  8
0
  6
ByBlock
 62
    0
370
   -1
100
AcDbLine
 10
0
 20
0
 11
-1
 21
-0.26794919
  0
LINE
  5
A3
100
AcDbEntity
  8
0
  6
ByBlock
 62
    0
370
   -1
100
AcDbLine
 10
0
 20
0
 11
-1
 21
0
  0
ENDBLK
  5
60
330
5E
100
AcDbEntity
  8
0
100
AcDbBlockEnd
  0
BLOCK
  5
62
330
61
100
AcDbEntity
  8
0
100
AcDbBlockBegin
  2
A$C3BD4745C
 70
    0
 10
0
 20
0
  3
A$C3BD4745C
  1

  0
ENDBLK
  5
63
330
61
100
AcDbEntity
  8
0
100
AcDbBlockEnd
  0
BLOCK
  5
65
330
64
100
AcDbEntity
  8
0
100
AcDbBlockBegin
  2
A$C75D8710B
 70
    0
 10
0
 20
0
  3
A$C75D8710B
  1

  0
MTEXT
  5
A4
100
AcDbEntity
  8
0
  6
ByLayer
 62
  256
370
   -1
100
AcDbMText
 10
0.3816715384637064
 20
3.136564893316518
 30
0
 40
2.5
 41
15.27777777777793
 71
    1
 72
    5
  1
GH90-002
  7
standard
210
0
220
0
230
1
 50
0
 73
    1
 44
1
  0
ENDBLK
  5
66
330
64
100
AcDbEntity
  8
0
100
AcDbBlockEnd
  0
BLOCK
  5
68
330
67
100
AcDbEntity
  8
0
100
AcDbBlockBegin
  2
A$C40033F47
 70
    0
 10
0
 20
0
  3
A$C40033F47
  1

  0
ENDBLK
  5
69
330
67
100
AcDbEntity
  8
0
100
AcDbBlockEnd
  0
BLOCK
  5
6B
330
6A
100
AcDbEntity
  8
0
100
AcDbBlockBegin
  2
_D_9
 70
    0
 10
0
 20
0
  3
_D_9
  1

  0
SOLID
  5
A5
100
AcDbEntity
  8
SLD-0
  6
ByLayer
 62
    5
370
   -1
100
AcDbTrace
 10
178.1842812995166
 20
235.7432112068963
 30
0
 11
178.9342812995166
 21
237.7432112068963
 31
0
 12
177.4342812995166
 22
237.7432112068963
 32
0
 13
177.4342812995166
 23
237.7432112068963
 33
0
  0
SOLID
  5
A6
100
AcDbEntity
  8
SLD-0
  6
ByLayer
 62
    5
370
   -1
100
AcDbTrace
 10
178.1842812995166
 20
246.7432112068963
 30
0
 11
177.4342812995166
 21
244.7432112068963
 31
0
 12
178.9342812995166
 22
244.7432112068963
 32
0
 13
178.9342812995166
 23
244.7432112068963
 33
0
  0
LINE
  5
A7
100
AcDbEntity
  8
SLD-0
  6
ByLayer
 62
    5
370
   -1
100
AcDbLine
 10
168.0500979165974
 20
235.7432112068963
 11
179.1842812995166
 21
235.7432112068963
  0
LINE
  5
A8
100
AcDbEntity
  8
SLD-0
  6
ByLayer
 62
    5
370
   -1
100
AcDbLine
 10
169.1831250647847
 20
246.7432112068963
 11
179.1842812995166
 21
246.7432112068963
  0
LINE
  5
A9
100
AcDbEntity
  8
SLD-0
  6
ByLayer
 62
    5
370
   -1
100
AcDbLine
 10
186.0696982691735
 20
255.2866139690489
 11
178.1842812995166
 21
255.2866139690489
  0
LINE
  5
AA
100
AcDbEntity
  8
SLD-0
  6
ByLayer
 62
    5
370
   -1
100
AcDbLine
 10
178.1842812995166
 20
255.2866139690489
 11
178.1842812995166
 21
246.7432112068963
  0
LINE
  5
AB
100
AcDbEntity
  8
SLD-0
  6
ByLayer
 62
    5
370
   -1
100
AcDbLine
 10
178.1842812995166
 20
235.7432112068963
 11
178.1842812995166
 21
246.7432112068963
  0
MTEXT
  5
AC
100
AcDbEntity
  8
SLD-0
  6
ByLayer
 62
    5
370
   -1
100
AcDbMText
 10
178.1842812995166
 20
258.1990145114229
 30
0
 40
2.5
 41
6.666666666666666
 71
    1
 72
    1
  1
11.00
  7
sldtextstyle6
210
0
220
0
230
1
 50
0
 73
    1
 44
1
  0
ENDBLK
  5
6C
330
6A
100
AcDbEntity
  8
0
100
AcDbBlockEnd
  0
BLOCK
  5
6E
330
6D
100
AcDbEntity
  8
0
100
AcDbBlockBegin
  2
_D_10
 70
    0
 10
0
 20
0
  3
_D_10
  1

  0
SOLID
  5
AD
100
AcDbEntity
  8
SLD-0
  6
ByLayer
 62
    5
370
   -1
100
AcDbTrace
 10
152.0223206098185
 20
258.4555493469426
 30
0
 11
154.0223206098185
 21
257.7055493469426
 31
0
 12
154.0223206098185
 22
259.2055493469426
 32
0
 13
154.0223206098185
 23
259.2055493469426
 33
0
  0
SOLID
  5
AE
100
AcDbEntity
  8
SLD-0
  6
ByLayer
 62
    5
370
   -1
100
AcDbTrace
 10
149.542162148802
 20
258.4555493469426
 30
0
 11
147.542162148802
 21
259.2055493469426
 31
0
 12
147.542162148802
 22
257.7055493469426
 32
0
 13
147.542162148802
 23
257.7055493469426
 33
0
  0
LINE
  5
AF
100
AcDbEntity
  8
SLD-0
  6
ByLayer
 62
    5
370
   -1
100
AcDbLine
 10
152.0223206098185
 20
235.7432112068963
 11
152.0223206098185
 21
259.4555493469426
  0
LINE
  5
B0
100
AcDbEntity
  8
SLD-0
  6
ByLayer
 62
    5
370
   -1
100
AcDbLine
 10
149.542162148802
 20
235.7432112068963
 11
149.542162148802
 21
259.4555493469426
  0
LINE
  5
B1
100
AcDbEntity
  8
SLD-0
  6
ByLayer
 62
    5
370
   -1
100
AcDbLine
 10
152.0223206098185
 20
258.4555493469426
 11
165.8256638528217
 21
258.4555493469426
  0
LINE
  5
B2
100
AcDbEntity
  8
SLD-0
  6
ByLayer
 62
    5
370
   -1
100
AcDbLine
 10
152.0223206098185
 20
258.4555493469426
 11
149.542162148802
 21
258.4555493469426
  0
LINE
  5
B3
100
AcDbEntity
  8
SLD-0
  6
ByLayer
 62
    5
370
   -1
100
AcDbLine
 10
149.542162148802
 20
258.4555493469426
 11
147.042162148802
 21
258.4555493469426
  0
MTEXT
  5
B4
100
AcDbEntity
  8
SLD-0
  6
ByLayer
 62
    5
370
   -1
100
AcDbMText
 10
159.6381638863493
 20
261.3679498893167
 30
0
 40
2.5
 41
6.111111111111111
 71
    1
 72
    1
  1
2.48
  7
sldtextstyle6
210
0
220
0
230
1
 50
0
 73
    1
 44
1
  0
ENDBLK
  5
6F
330
6D
100
AcDbEntity
  8
0
100
AcDbBlockEnd
  0
BLOCK
  5
71
330
70
100
AcDbEntity
  8
0
100
AcDbBlockBegin
  2
_D_11
 70
    0
 10
0
 20
0
  3
_D_11
  1

  0
SOLID
  5
B5
100
AcDbEntity
  8
SLD-0
  6
ByLayer
 62
    5
370
   -1
100
AcDbTrace
 10
152.214994200663
 20
262.278458268868
 30
0
 11
154.214994200663
 21
261.528458268868
 31
0
 12
154.214994200663
 22
263.028458268868
 32
0
 13
154.214994200663
 23
263.028458268868
 33
0
  0
SOLID
  5
B6
100
AcDbEntity
  8
SLD-0
  6
ByLayer
 62
    5
370
   -1
100
AcDbTrace
 10
149.3494885579576
 20
262.278458268868
 30
0
 11
147.3494885579576
 21
263.028458268868
 31
0
 12
147.3494885579576
 22
261.528458268868
 32
0
 13
147.3494885579576
 23
261.528458268868
 33
0
  0
LINE
  5
B7
100
AcDbEntity
  8
SLD-0
  6
ByLayer
 62
    5
370
   -1
100
AcDbLine
 10
152.214994200663
 20
241.2606609552476
 11
152.214994200663
 21
263.278458268868
  0
LINE
  5
B8
100
AcDbEntity
  8
SLD-0
  6
ByLayer
 62
    5
370
   -1
100
AcDbLine
 10
149.3494885579576
 20
241.2606609552476
 11
149.3494885579576
 21
263.278458268868
  0
LINE
  5
B9
100
AcDbEntity
  8
SLD-0
  6
ByLayer
 62
    5
370
   -1
100
AcDbLine
 10
152.214994200663
 20
262.278458268868
 11
165.8256638528217
 21
262.278458268868
  0
LINE
  5
BA
100
AcDbEntity
  8
SLD-0
  6
ByLayer
 62
    5
370
   -1
100
AcDbLine
 10
152.214994200663
 20
262.278458268868
 11
149.3494885579576
 21
262.278458268868
  0
LINE
  5
BB
100
AcDbEntity
  8
SLD-0
  6
ByLayer
 62
    5
370
   -1
100
AcDbLine
 10
149.3494885579576
 20
262.278458268868
 11
146.8494885579575
 21
262.278458268868
  0
MTEXT
  5
BC
100
AcDbEntity
  8
SLD-0
  6
ByLayer
 62
    5
370
   -1
100
AcDbMText
 10
159.6381638863493
 20
265.1908588112421
 30
0
 40
2.5
 41
5.833333333333333
 71
    1
 72
    1
  1
2.87
  7
sldtextstyle6
210
0
220
0
230
1
 50
0
 73
    1
 44
1
  0
ENDBLK
  5
72
330
70
100
AcDbEntity
  8
0
100
AcDbBlockEnd
  0
BLOCK
  5
74
330
73
100
AcDbEntity
  8
0
100
AcDbBlockBegin
  2
_D
 70
    0
 10
0
 20
0
  3
_D
  1

  0
SOLID
  5
BD
100
AcDbEntity
  8
SLD-0
  6
ByLayer
 62
    5
370
   -1
100
AcDbTrace
 10
71.20724137931035
 20
215.1169328708297
 30
0
 11
73.20724137931035
 21
214.3669328708297
 31
0
 12
73.20724137931035
 22
215.8669328708297
 32
0
 13
73.20724137931035
 23
215.8669328708297
 33
0
  0
SOLID
  5
BE
100
AcDbEntity
  8
SLD-0
  6
ByLayer
 62
    5
370
   -1
100
AcDbTrace
 10
171.2072413793103
 20
215.1169328708297
 30
0
 11
169.2072413793103
 21
215.8669328708297
 31
0
 12
169.2072413793103
 22
214.3669328708297
 32
0
 13
169.2072413793103
 23
214.3669328708297
 33
0
  0
LINE
  5
BF
100
AcDbEntity
  8
SLD-0
  6
ByLayer
 62
    5
370
   -1
100
AcDbLine
 10
71.20724137931035
 20
197.9379956896551
 11
71.20724137931035
 21
216.1169328708297
  0
LINE
  5
C0
100
AcDbEntity
  8
SLD-0
  6
ByLayer
 62
    5
370
   -1
100
AcDbLine
 10
171.2072413793103
 20
197.9379956896551
 11
171.2072413793103
 21
216.1169328708297
  0
LINE
  5
C1
100
AcDbEntity
  8
SLD-0
  6
ByLayer
 62
    5
370
   -1
100
AcDbLine
 10
71.20724137931035
 20
215.1169328708297
 11
171.2072413793103
 21
215.1169328708297
  0
MTEXT
  5
C2
100
AcDbEntity
  8
SLD-0
  6
ByLayer
 62
    5
370
   -1
100
AcDbMText
 10
116.4155746257202
 20
218.0293334132039
 30
0
 40
2.5
 41
9.166666666666666
 71
    1
 72
    1
  1
100.00
  7
sldtextstyle6
210
0
220
0
230
1
 50
0
 73
    1
 44
1
  0
ENDBLK
  5
75
330
73
100
AcDbEntity
  8
0
100
AcDbBlockEnd
  0
BLOCK
  5
77
330
76
100
AcDbEntity
  8
0
100
AcDbBlockBegin
  2
_D_1
 70
    0
 10
0
 20
0
  3
_D_1
  1

  0
SOLID
  5
C3
100
AcDbEntity
  8
SLD-0
  6
ByLayer
 62
    5
370
   -1
100
AcDbTrace
 10
61.20724137931032
 20
196.9379956896551
 30
0
 11
60.45724137931032
 21
194.9379956896551
 31
0
 12
61.95724137931032
 22
194.9379956896551
 32
0
 13
61.95724137931032
 23
194.9379956896551
 33
0
  0
SOLID
  5
C4
100
AcDbEntity
  8
SLD-0
  6
ByLayer
 62
    5
370
   -1
100
AcDbTrace
 10
61.20724137931032
 20
105.9379956896551
 30
0
 11
61.95724137931032
 21
107.9379956896551
 31
0
 12
60.45724137931032
 22
107.9379956896551
 32
0
 13
60.45724137931032
 23
107.9379956896551
 33
0
  0
LINE
  5
C5
100
AcDbEntity
  8
SLD-0
  6
ByLayer
 62
    5
370
   -1
100
AcDbLine
 10
70.20724137931035
 20
196.9379956896551
 11
60.20724137931031
 21
196.9379956896551
  0
LINE
  5
C6
100
AcDbEntity
  8
SLD-0
  6
ByLayer
 62
    5
370
   -1
100
AcDbLine
 10
70.20724137931035
 20
105.9379956896551
 11
60.20724137931031
 21
105.9379956896551
  0
LINE
  5
C7
100
AcDbEntity
  8
SLD-0
  6
ByLayer
 62
    5
370
   -1
100
AcDbLine
 10
61.20724137931032
 20
196.9379956896551
 11
61.20724137931032
 21
152.8945929275029
  0
LINE
  5
C8
100
AcDbEntity
  8
SLD-0
  6
ByLayer
 62
    5
370
   -1
100
AcDbLine
 10
61.20724137931032
 20
105.9379956896551
 11
61.20724137931032
 21
149.9813984518075
  0
MTEXT
  5
C9
100
AcDbEntity
  8
SLD-0
  6
ByLayer
 62
    5
370
   -1
100
AcDbMText
 10
57.26453289448185
 20
152.8937989941815
 30
0
 40
2.5
 41
7.222222222222379
 71
    1
 72
    1
  1
91.00
  7
sldtextstyle6
210
0
220
0
230
1
 50
0
 73
    1
 44
1
  0
ENDBLK
  5
78
330
76
100
AcDbEntity
  8
0
100
AcDbBlockEnd
  0
BLOCK
  5
7A
330
79
100
AcDbEntity
  8
0
100
AcDbBlockBegin
  2
_D_2
 70
    0
 10
0
 20
0
  3
_D_2
  1

  0
SOLID
  5
CA
100
AcDbEntity
  8
SLD-0
  6
ByLayer
 62
    5
370
   -1
100
AcDbTrace
 10
179.6014320988083
 20
153.4037265096551
 30
0
 11
178.8514320988083
 21
151.4037265096551
 31
0
 12
180.3514320988083
 22
151.4037265096551
 32
0
 13
180.3514320988083
 23
151.4037265096551
 33
0
  0
SOLID
  5
CB
100
AcDbEntity
  8
SLD-0
  6
ByLayer
 62
    5
370
   -1
100
AcDbTrace
 10
179.6014320988083
 20
118.0037265096551
 30
0
 11
180.3514320988083
 21
120.0037265096551
 31
0
 12
178.8514320988083
 22
120.0037265096551
 32
0
 13
178.8514320988083
 23
120.0037265096551
 33
0
  0
LINE
  5
CC
100
AcDbEntity
  8
SLD-0
  6
ByLayer
 62
    5
370
   -1
100
AcDbLine
 10
153.3822382193103
 20
153.4037265096551
 11
180.6014320988083
 21
153.4037265096551
  0
LINE
  5
CD
100
AcDbEntity
  8
SLD-0
  6
ByLayer
 62
    5
370
   -1
100
AcDbLine
 10
153.3822382193103
 20
118.0037265096551
 11
180.6014320988083
 21
118.0037265096551
  0
LINE
  5
CE
100
AcDbEntity
  8
SLD-0
  6
ByLayer
 62
    5
370
   -1
100
AcDbLine
 10
179.6014320988083
 20
153.4037265096551
 11
179.6014320988083
 21
137.1603237475029
  0
LINE
  5
CF
100
AcDbEntity
  8
SLD-0
  6
ByLayer
 62
    5
370
   -1
100
AcDbLine
 10
179.6014320988083
 20
118.0037265096551
 11
179.6014320988083
 21
134.2471292718074
  0
MTEXT
  5
D0
100
AcDbEntity
  8
SLD-0
  6
ByLayer
 62
    5
370
   -1
100
AcDbMText
 10
175.6587236139797
 20
137.1595298141815
 30
0
 40
2.5
 41
8.055555555555866
 71
    1
 72
    1
  1
35.40
  7
sldtextstyle6
210
0
220
0
230
1
 50
0
 73
    1
 44
1
  0
ENDBLK
  5
7B
330
79
100
AcDbEntity
  8
0
100
AcDbBlockEnd
  0
BLOCK
  5
7D
330
7C
100
AcDbEntity
  8
0
100
AcDbBlockBegin
  2
_D_3
 70
    0
 10
0
 20
0
  3
_D_3
  1

  0
SOLID
  5
D1
100
AcDbEntity
  8
SLD-0
  6
ByLayer
 62
    5
370
   -1
100
AcDbTrace
 10
108.9822382193103
 20
79.80515269807174
 30
0
 11
110.9822382193103
 21
79.05515269807174
 31
0
 12
110.9822382193103
 22
80.55515269807174
 32
0
 13
110.9822382193103
 23
80.55515269807174
 33
0
  0
SOLID
  5
D2
100
AcDbEntity
  8
SLD-0
  6
ByLayer
 62
    5
370
   -1
100
AcDbTrace
 10
152.3822382193103
 20
79.80515269807174
 30
0
 11
150.3822382193103
 21
80.55515269807174
 31
0
 12
150.3822382193103
 22
79.05515269807174
 32
0
 13
150.3822382193103
 23
79.05515269807174
 33
0
  0
LINE
  5
D3
100
AcDbEntity
  8
SLD-0
  6
ByLayer
 62
    5
370
   -1
100
AcDbLine
 10
108.9822382193103
 20
117.0037265096551
 11
108.9822382193103
 21
78.80515269807174
  0
LINE
  5
D4
100
AcDbEntity
  8
SLD-0
  6
ByLayer
 62
    5
370
   -1
100
AcDbLine
 10
152.3822382193103
 20
117.0037265096551
 11
152.3822382193103
 21
78.80515269807174
  0
LINE
  5
D5
100
AcDbEntity
  8
SLD-0
  6
ByLayer
 62
    5
370
   -1
100
AcDbLine
 10
108.9822382193103
 20
79.80515269807174
 11
152.3822382193103
 21
79.80515269807174
  0
MTEXT
  5
D6
100
AcDbEntity
  8
SLD-0
  6
ByLayer
 62
    5
370
   -1
100
AcDbMText
 10
126.7395297344818
 20
82.71755324044582
 30
0
 40
2.5
 41
8.33333333333349
 71
    1
 72
    1
  1
43.40
  7
sldtextstyle6
210
0
220
0
230
1
 50
0
 73
    1
 44
1
  0
ENDBLK
  5
7E
330
7C
100
AcDbEntity
  8
0
100
AcDbBlockEnd
  0
BLOCK
  5
80
330
7F
100
AcDbEntity
  8
0
100
AcDbBlockBegin
  2
_NONE
 70
    0
 10
0
 20
0
  3
_NONE
  1

  0
ENDBLK
  5
81
330
7F
100
AcDbEntity
  8
0
100
AcDbBlockEnd
  0
BLOCK
  5
83
330
82
100
AcDbEntity
  8
0
100
AcDbBlockBegin
  2
_D_4
 70
    0
 10
0
 20
0
  3
_D_4
  1

  0
SOLID
  5
D7
100
AcDbEntity
  8
SLD-0
  6
ByLayer
 62
    5
370
   -1
100
AcDbTrace
 10
159.8989279171647
 20
182.5387089735538
 30
0
 11
161.5980879468822
 21
183.8330641000204
 31
0
 12
160.3280341577684
 22
184.6311639513908
 32
0
 13
160.3280341577684
 23
184.6311639513908
 33
0
  0
LINE
  5
D8
100
AcDbEntity
  8
SLD-0
  6
ByLayer
 62
    5
370
   -1
100
AcDbLine
 10
159.8989279171647
 20
182.5387089735538
 11
182.084814299464
 21
217.8441522915849
  0
LINE
  5
D9
100
AcDbEntity
  8
SLD-0
  6
ByLayer
 62
    5
370
   -1
100
AcDbLine
 10
158.5155548414559
 20
180.3372824057564
 11
159.8989279171647
 21
182.5387089735538
  0
LINE
  5
DA
100
AcDbEntity
  8
SLD-0
  6
ByLayer
 62
    5
370
   -1
100
AcDbLine
 10
182.084814299464
 20
217.8441522915849
 11
190.5160641988812
 21
217.8441522915849
  0
MTEXT
  5
DB
100
AcDbEntity
  8
SLD-0
  6
ByLayer
 62
    5
370
   -1
100
AcDbMText
 10
183.672314299464
 20
220.7565528339589
 30
0
 40
2.5
 41
6.388888888889046
 71
    1
 72
    1
  1
M3.0
  7
sldtextstyle6
210
0
220
0
230
1
 50
0
 73
    1
 44
1
  0
ENDBLK
  5
84
330
82
100
AcDbEntity
  8
0
100
AcDbBlockEnd
  0
BLOCK
  5
86
330
85
100
AcDbEntity
  8
0
100
AcDbBlockBegin
  2
_D_5
 70
    0
 10
0
 20
0
  3
_D_5
  1

  0
SOLID
  5
DC
100
AcDbEntity
  8
SLD-0
  6
ByLayer
 62
    5
370
   -1
100
AcDbTrace
 10
159.1613700118902
 20
120.5550242560905
 30
0
 11
160.1198536195721
 21
118.6461478395026
 31
0
 12
161.1386668121466
 22
119.7470654924795
 32
0
 13
161.1386668121466
 23
119.7470654924795
 33
0
  0
LINE
  5
DD
100
AcDbEntity
  8
SLD-0
  6
ByLayer
 62
    5
370
   -1
100
AcDbLine
 10
159.1613700118902
 20
120.5550242560905
 11
189.332523541159
 21
92.63398114474134
  0
LINE
  5
DE
100
AcDbEntity
  8
SLD-0
  6
ByLayer
 62
    5
370
   -1
100
AcDbLine
 10
157.2531127467304
 20
122.3209671232197
 11
159.1613700118902
 21
120.5550242560905
  0
LINE
  5
DF
100
AcDbEntity
  8
SLD-0
  6
ByLayer
 62
    5
370
   -1
100
AcDbLine
 10
189.332523541159
 20
92.63398114474134
 11
197.7637734405762
 21
92.63398114474134
  0
MTEXT
  5
E0
100
AcDbEntity
  8
SLD-0
  6
ByLayer
 62
    5
370
   -1
100
AcDbMText
 10
190.920023541159
 20
95.54638168711539
 30
0
 40
2.5
 41
6.388888888889046
 71
    1
 72
    1
  1
M3.0
  7
sldtextstyle6
210
0
220
0
230
1
 50
0
 73
    1
 44
1
  0
ENDBLK
  5
87
330
85
100
AcDbEntity
  8
0
100
AcDbBlockEnd
  0
BLOCK
  5
89
330
88
100
AcDbEntity
  8
0
100
AcDbBlockBegin
  2
_D_6
 70
    0
 10
0
 20
0
  3
_D_6
  1

  0
SOLID
  5
E1
100
AcDbEntity
  8
SLD-0
  6
ByLayer
 62
    5
370
   -1
100
AcDbTrace
 10
83.26580460241448
 20
191.334487070042
 30
0
 11
82.33464689587487
 21
193.2568411803848
 31
0
 12
81.30023376465923
 22
192.1705679762743
 32
0
 13
81.30023376465923
 23
192.1705679762743
 33
0
  0
LINE
  5
E2
100
AcDbEntity
  8
SLD-0
  6
ByLayer
 62
    5
370
   -1
100
AcDbLine
 10
83.26580460241448
 20
191.334487070042
 11
47.87679538795869
 21
225.0339796964092
  0
LINE
  5
E3
100
AcDbEntity
  8
SLD-0
  6
ByLayer
 62
    5
370
   -1
100
AcDbLine
 10
85.14867815620613
 20
189.5415043092682
 11
83.26580460241448
 21
191.334487070042
  0
LINE
  5
E4
100
AcDbEntity
  8
SLD-0
  6
ByLayer
 62
    5
370
   -1
100
AcDbLine
 10
47.87679538795869
 20
225.0339796964092
 11
39.44554548854153
 21
225.0339796964092
  0
MTEXT
  5
E5
100
AcDbEntity
  8
SLD-0
  6
ByLayer
 62
    5
370
   -1
100
AcDbMText
 10
39.44554548854153
 20
227.9463802387833
 30
0
 40
2.5
 41
6.388888888889046
 71
    1
 72
    1
  1
M3.0
  7
sldtextstyle6
210
0
220
0
230
1
 50
0
 73
    1
 44
1
  0
ENDBLK
  5
8A
330
88
100
AcDbEntity
  8
0
100
AcDbBlockEnd
  0
BLOCK
  5
8C
330
8B
100
AcDbEntity
  8
0
100
AcDbBlockBegin
  2
_D_7
 70
    0
 10
0
 20
0
  3
_D_7
  1

  0
SOLID
  5
E6
100
AcDbEntity
  8
SLD-0
  6
ByLayer
 62
    5
370
   -1
100
AcDbTrace
 10
83.26030917696373
 20
120.5473108945906
 30
0
 11
81.28963379158563
 21
119.7233336343068
 31
0
 12
82.31734701666002
 22
118.6307195546761
 32
0
 13
82.31734701666002
 23
118.6307195546761
 33
0
  0
LINE
  5
E7
100
AcDbEntity
  8
SLD-0
  6
ByLayer
 62
    5
370
   -1
100
AcDbLine
 10
83.26030917696373
 20
120.5473108945906
 11
45.1284080080901
 21
84.6804299353704
  0
LINE
  5
E8
100
AcDbEntity
  8
SLD-0
  6
ByLayer
 62
    5
370
   -1
100
AcDbLine
 10
85.15417358165689
 20
122.3286804847196
 11
83.26030917696373
 21
120.5473108945906
  0
LINE
  5
E9
100
AcDbEntity
  8
SLD-0
  6
ByLayer
 62
    5
370
   -1
100
AcDbLine
 10
45.1284080080901
 20
84.6804299353704
 11
36.69715810867292
 21
84.6804299353704
  0
MTEXT
  5
EA
100
AcDbEntity
  8
SLD-0
  6
ByLayer
 62
    5
370
   -1
100
AcDbMText
 10
36.69715810867292
 20
87.59283047774446
 30
0
 40
2.5
 41
6.388888888889046
 71
    1
 72
    1
  1
M3.0
  7
sldtextstyle6
210
0
220
0
230
1
 50
0
 73
    1
 44
1
  0
ENDBLK
  5
8D
330
8B
100
AcDbEntity
  8
0
100
AcDbBlockEnd
  0
BLOCK
  5
8F
330
8E
100
AcDbEntity
  8
0
100
AcDbBlockBegin
  2
_D_8
 70
    0
 10
0
 20
0
  3
_D_8
  1

  0
SOLID
  5
EB
100
AcDbEntity
  8
SLD-0
  6
ByLayer
 62
    5
370
   -1
100
AcDbTrace
 10
98.09211192712263
 20
118.0037265096551
 30
0
 11
97.34211192712263
 21
116.0037265096551
 31
0
 12
98.84211192712263
 22
116.0037265096551
 32
0
 13
98.84211192712263
 23
116.0037265096551
 33
0
  0
SOLID
  5
EC
100
AcDbEntity
  8
SLD-0
  6
ByLayer
 62
    5
370
   -1
100
AcDbTrace
 10
98.09211192712263
 20
105.9379956896551
 30
0
 11
98.84211192712263
 21
107.9379956896551
 31
0
 12
97.34211192712263
 22
107.9379956896551
 32
0
 13
97.34211192712263
 23
107.9379956896551
 33
0
  0
LINE
  5
ED
100
AcDbEntity
  8
SLD-0
  6
ByLayer
 62
    5
370
   -1
100
AcDbLine
 10
107.9822382193103
 20
118.0037265096551
 11
97.09211192712263
 21
118.0037265096551
  0
LINE
  5
EE
100
AcDbEntity
  8
SLD-0
  6
ByLayer
 62
    5
370
   -1
100
AcDbLine
 10
90.20669495746566
 20
93.25812082805641
 11
98.09211192712263
 21
93.25812082805641
  0
LINE
  5
EF
100
AcDbEntity
  8
SLD-0
  6
ByLayer
 62
    5
370
   -1
100
AcDbLine
 10
98.09211192712263
 20
93.25812082805641
 11
98.09211192712263
 21
105.9379956896551
  0
LINE
  5
F0
100
AcDbEntity
  8
SLD-0
  6
ByLayer
 62
    5
370
   -1
100
AcDbLine
 10
98.09211192712263
 20
118.0037265096551
 11
98.09211192712263
 21
105.9379956896551
  0
MTEXT
  5
F1
100
AcDbEntity
  8
SLD-0
  6
ByLayer
 62
    5
370
   -1
100
AcDbMText
 10
90.20669495746566
 20
96.17052137043046
 30
0
 40
2.5
 41
7.222222222222222
 71
    1
 72
    1
  1
12.07
  7
sldtextstyle6
210
0
220
0
230
1
 50
0
 73
    1
 44
1
  0
ENDBLK
  5
90
330
8E
100
AcDbEntity
  8
0
100
AcDbBlockEnd
  0
BLOCK
  5
92
330
91
100
AcDbEntity
  8
0
100
AcDbBlockBegin
  2
_D_12
 70
    0
 10
0
 20
0
  3
_D_12
  1

  0
SOLID
  5
F2
100
AcDbEntity
  8
SLD-0
  6
ByLayer
 62
    5
370
   -1
100
AcDbTrace
 10
119.1743565163576
 20
69.06834051724134
 30
0
 11
119.9243565163576
 21
71.06834051724134
 31
0
 12
118.4243565163576
 22
71.06834051724134
 32
0
 13
118.4243565163576
 23
71.06834051724134
 33
0
  0
SOLID
  5
F3
100
AcDbEntity
  8
SLD-0
  6
ByLayer
 62
    5
370
   -1
100
AcDbTrace
 10
119.1743565163576
 20
66.86834051724135
 30
0
 11
118.4243565163576
 21
64.86834051724135
 31
0
 12
119.9243565163576
 22
64.86834051724135
 32
0
 13
119.9243565163576
 23
64.86834051724135
 33
0
  0
LINE
  5
F4
100
AcDbEntity
  8
SLD-0
  6
ByLayer
 62
    5
370
   -1
100
AcDbLine
 10
125.36185648283
 20
74.07710594626968
 11
119.1743565163576
 21
74.07710594626968
  0
LINE
  5
F5
100
AcDbEntity
  8
SLD-0
  6
ByLayer
 62
    5
370
   -1
100
AcDbLine
 10
119.1743565163576
 20
74.07710594626968
 11
119.1743565163576
 21
69.06834051724134
  0
LINE
  5
F6
100
AcDbEntity
  8
SLD-0
  6
ByLayer
 62
    5
370
   -1
100
AcDbLine
 10
119.1743565163576
 20
66.86834051724135
 11
119.1743565163576
 21
64.36834051724135
  0
MTEXT
  5
F7
100
AcDbEntity
  8
SLD-0
  6
ByLayer
 62
    5
370
   -1
100
AcDbMText
 10
119.1743565163577
 20
76.98950648864374
 30
0
 40
2.5
 41
5.833333333333334
 71
    1
 72
    1
  1
2.20
  7
sldtextstyle6
210
0
220
0
230
1
 50
0
 73
    1
 44
1
  0
ENDBLK
  5
93
330
91
100
AcDbEntity
  8
0
100
AcDbBlockEnd
  0
BLOCK
  5
95
330
94
100
AcDbEntity
  8
0
100
AcDbBlockBegin
  2
_D_13
 70
    0
 10
0
 20
0
  3
_D_13
  1

  0
SOLID
  5
F8
100
AcDbEntity
  8
SLD-0
  6
ByLayer
 62
    5
370
   -1
100
AcDbTrace
 10
139.8399371360513
 20
68.96834051724133
 30
0
 11
140.5899371360513
 21
70.96834051724133
 31
0
 12
139.0899371360513
 22
70.96834051724133
 32
0
 13
139.0899371360513
 23
70.96834051724133
 33
0
  0
SOLID
  5
F9
100
AcDbEntity
  8
SLD-0
  6
ByLayer
 62
    5
370
   -1
100
AcDbTrace
 10
139.8399371360513
 20
66.86834051724134
 30
0
 11
139.0899371360513
 21
64.86834051724134
 31
0
 12
140.5899371360513
 22
64.86834051724134
 32
0
 13
140.5899371360513
 23
64.86834051724134
 33
0
  0
LINE
  5
FA
100
AcDbEntity
  8
SLD-0
  6
ByLayer
 62
    5
370
   -1
100
AcDbLine
 10
146.0274371025237
 20
74.46702256173559
 11
139.8399371360513
 21
74.46702256173559
  0
LINE
  5
FB
100
AcDbEntity
  8
SLD-0
  6
ByLayer
 62
    5
370
   -1
100
AcDbLine
 10
139.8399371360513
 20
74.46702256173559
 11
139.8399371360513
 21
68.96834051724133
  0
LINE
  5
FC
100
AcDbEntity
  8
SLD-0
  6
ByLayer
 62
    5
370
   -1
100
AcDbLine
 10
139.8399371360513
 20
66.86834051724134
 11
139.8399371360513
 21
64.36834051724134
  0
MTEXT
  5
FD
100
AcDbEntity
  8
SLD-0
  6
ByLayer
 62
    5
370
   -1
100
AcDbMText
 10
139.8399371360513
 20
77.37942310410965
 30
0
 40
2.5
 41
5.277777777777779
 71
    1
 72
    1
  1
2.10
  7
sldtextstyle6
210
0
220
0
230
1
 50
0
 73
    1
 44
1
  0
ENDBLK
  5
96
330
94
100
AcDbEntity
  8
0
100
AcDbBlockEnd
  0
BLOCK
  5
98
330
97
100
AcDbEntity
  8
0
100
AcDbBlockBegin
  2
_D_14
 70
    0
 10
0
 20
0
  3
_D_14
  1

  0
SOLID
  5
FE
100
AcDbEntity
  8
SLD-0
  6
ByLayer
 62
    5
370
   -1
100
AcDbTrace
 10
161.1553787815215
 20
66.86834051724134
 30
0
 11
160.4053787815215
 21
64.86834051724134
 31
0
 12
161.9053787815215
 22
64.86834051724134
 32
0
 13
161.9053787815215
 23
64.86834051724134
 33
0
  0
SOLID
  5
FF
100
AcDbEntity
  8
SLD-0
  6
ByLayer
 62
    5
370
   -1
100
AcDbTrace
 10
161.1553787815215
 20
69.76834051724133
 30
0
 11
161.9053787815215
 21
71.76834051724133
 31
0
 12
160.4053787815215
 22
71.76834051724133
 32
0
 13
160.4053787815215
 23
71.76834051724133
 33
0
  0
LINE
  5
100
100
AcDbEntity
  8
SLD-0
  6
ByLayer
 62
    5
370
   -1
100
AcDbLine
 10
164.3037493023611
 20
69.76834051724133
 11
160.1553787815215
 21
69.76834051724133
  0
LINE
  5
101
100
AcDbEntity
  8
SLD-0
  6
ByLayer
 62
    5
370
   -1
100
AcDbLine
 10
154.9678788150491
 20
74.14209204884733
 11
161.1553787815215
 21
74.14209204884733
  0
LINE
  5
102
100
AcDbEntity
  8
SLD-0
  6
ByLayer
 62
    5
370
   -1
100
AcDbLine
 10
161.1553787815215
 20
74.14209204884733
 11
161.1553787815215
 21
69.76834051724133
  0
LINE
  5
103
100
AcDbEntity
  8
SLD-0
  6
ByLayer
 62
    5
370
   -1
100
AcDbLine
 10
161.1553787815215
 20
66.86834051724134
 11
161.1553787815215
 21
64.36834051724134
  0
MTEXT
  5
104
100
AcDbEntity
  8
SLD-0
  6
ByLayer
 62
    5
370
   -1
100
AcDbMText
 10
154.9678788150493
 20
77.05449259122139
 30
0
 40
2.5
 41
5.833333333333334
 71
    1
 72
    1
  1
2.90
  7
sldtextstyle6
210
0
220
0
230
1
 50
0
 73
    1
 44
1
  0
ENDBLK
  5
99
330
97
100
AcDbEntity
  8
0
100
AcDbBlockEnd
  0
BLOCK
  5
9B
330
9A
100
AcDbEntity
  8
0
100
AcDbBlockBegin
  2
_D_15
 70
    0
 10
0
 20
0
  3
_D_15
  1

  0
SOLID
  5
105
100
AcDbEntity
  8
SLD-0
  6
ByLayer
 62
    5
370
   -1
100
AcDbTrace
 10
91.68007639545948
 20
64.86834051724135
 30
0
 11
90.93007639545948
 21
62.86834051724135
 31
0
 12
92.43007639545948
 22
62.86834051724135
 32
0
 13
92.43007639545948
 23
62.86834051724135
 33
0
  0
SOLID
  5
106
100
AcDbEntity
  8
SLD-0
  6
ByLayer
 62
    5
370
   -1
100
AcDbTrace
 10
91.68007639545948
 20
66.86834051724135
 30
0
 11
92.43007639545948
 21
68.86834051724135
 31
0
 12
90.93007639545948
 22
68.86834051724135
 32
0
 13
90.93007639545948
 23
68.86834051724135
 33
0
  0
LINE
  5
107
100
AcDbEntity
  8
SLD-0
  6
ByLayer
 62
    5
370
   -1
100
AcDbLine
 10
85.49257642898709
 20
74.64788241578037
 11
91.68007639545948
 21
74.64788241578037
  0
LINE
  5
108
100
AcDbEntity
  8
SLD-0
  6
ByLayer
 62
    5
370
   -1
100
AcDbLine
 10
91.68007639545948
 20
74.64788241578037
 11
91.68007639545948
 21
66.86834051724135
  0
LINE
  5
109
100
AcDbEntity
  8
SLD-0
  6
ByLayer
 62
    5
370
   -1
100
AcDbLine
 10
91.68007639545948
 20
64.86834051724135
 11
91.68007639545948
 21
62.36834051724134
  0
MTEXT
  5
10A
100
AcDbEntity
  8
SLD-0
  6
ByLayer
 62
    5
370
   -1
100
AcDbMText
 10
85.49257642898709
 20
77.56028295815443
 30
0
 40
2.5
 41
5.833333333333334
 71
    1
 72
    1
  1
2.00
  7
sldtextstyle6
210
0
220
0
230
1
 50
0
 73
    1
 44
1
  0
ENDBLK
  5
9C
330
9A
100
AcDbEntity
  8
0
100
AcDbBlockEnd
  0
BLOCK
  5
9E
330
9D
100
AcDbEntity
  8
0
100
AcDbBlockBegin
  2
_D_16
 70
    0
 10
0
 20
0
  3
_D_16
  1

  0
SOLID
  5
10B
100
AcDbEntity
  8
SLD-0
  6
ByLayer
 62
    5
370
   -1
100
AcDbTrace
 10
80.90890474930508
 20
66.86834051724135
 30
0
 11
81.65890474930508
 21
68.86834051724135
 31
0
 12
80.15890474930508
 22
68.86834051724135
 32
0
 13
80.15890474930508
 23
68.86834051724135
 33
0
  0
SOLID
  5
10C
100
AcDbEntity
  8
SLD-0
  6
ByLayer
 62
    5
370
   -1
100
AcDbTrace
 10
80.90890474930508
 20
63.86834051724134
 30
0
 11
80.15890474930508
 21
61.86834051724134
 31
0
 12
81.65890474930508
 22
61.86834051724134
 32
0
 13
81.65890474930508
 23
61.86834051724134
 33
0
  0
LINE
  5
10D
100
AcDbEntity
  8
SLD-0
  6
ByLayer
 62
    5
370
   -1
100
AcDbLine
 10
87.09640471577747
 20
71.64831562824369
 11
80.90890474930508
 21
71.64831562824369
  0
LINE
  5
10E
100
AcDbEntity
  8
SLD-0
  6
ByLayer
 62
    5
370
   -1
100
AcDbLine
 10
80.90890474930508
 20
71.64831562824369
 11
80.90890474930508
 21
66.86834051724135
  0
LINE
  5
10F
100
AcDbEntity
  8
SLD-0
  6
ByLayer
 62
    5
370
   -1
100
AcDbLine
 10
80.90890474930508
 20
63.86834051724134
 11
80.90890474930508
 21
61.36834051724134
  0
MTEXT
  5
110
100
AcDbEntity
  8
SLD-0
  6
ByLayer
 62
    5
370
   -1
100
AcDbMText
 10
80.90890474930508
 20
74.56071617061774
 30
0
 40
2.5
 41
5.833333333333488
 71
    1
 72
    1
  1
3.00
  7
sldtextstyle6
210
0
220
0
230
1
 50
0
 73
    1
 44
1
  0
ENDBLK
  5
9F
330
9D
100
AcDbEntity
  8
0
100
AcDbBlockEnd
  0
ENDSEC
  0
SECTION
  2
ENTITIES
  0
MTEXT
  5
111
100
AcDbEntity
  8
2
  6
ByLayer
 62
    7
370
   15
100
AcDbMText
 10
929.1755424157245
 20
350.2659931871044
 30
0
 40
3
 41
0
 71
    5
 72
    5
  1
 
  7
zhijin
210
0
220
0
230
1
 50
0
 73
    1
 44
1
  0
LINE
  5
112
100
AcDbEntity
  8
0
  6
CONTINUOUS
 62
    7
370
   18
100
AcDbLine
 10
3.590159974505696
 20
0
 11
3.590159974505696
 21
90.99999999999994
  0
LINE
  5
113
100
AcDbEntity
  8
0
  6
CONTINUOUS
 62
    7
370
   18
100
AcDbLine
 10
4.089855388015167
 20
90.99999999999994
 11
4.089855388015167
 21
0
  0
LINE
  5
114
100
AcDbEntity
  8
0
  6
CONTINUOUS
 62
    7
370
   18
100
AcDbLine
 10
3.590159974505696
 20
90.99999999999994
 11
4.089855388015167
 21
90.99999999999994
  0
LINE
  5
115
100
AcDbEntity
  8
0
  6
CONTINUOUS
 62
    7
370
   18
100
AcDbLine
 10
4.089855388015167
 20
0
 11
3.590159974505696
 21
0
  0
LINE
  5
116
100
AcDbEntity
  8
0
  6
CONTINUOUS
 62
    7
370
   18
100
AcDbLine
 10
2.132993059823093
 20
90.99999999999994
 11
2.132993059823093
 21
0
  0
LINE
  5
117
100
AcDbEntity
  8
0
  6
CONTINUOUS
 62
    7
370
   18
100
AcDbLine
 10
1.633297646313622
 20
0
 11
1.633297646313622
 21
90.99999999999994
  0
LINE
  5
118
100
AcDbEntity
  8
0
  6
CONTINUOUS
 62
    7
370
   18
100
AcDbLine
 10
1.633297646313622
 20
90.99999999999994
 11
2.132993059823093
 21
90.99999999999994
  0
LINE
  5
119
100
AcDbEntity
  8
0
  6
CONTINUOUS
 62
    7
370
   18
100
AcDbLine
 10
2.132993059823093
 20
0
 11
1.633297646313622
 21
0
  0
LINE
  5
11A
100
AcDbEntity
  8
0
  6
CONTINUOUS
 62
    7
370
   18
100
AcDbLine
 10
97.40160185038894
 20
90.99999999999994
 11
97.40160185038894
 21
0
  0
LINE
  5
11B
100
AcDbEntity
  8
0
  6
CONTINUOUS
 62
    7
370
   18
100
AcDbLine
 10
96.90190643687947
 20
0
 11
96.90190643687947
 21
90.99999999999994
  0
LINE
  5
11C
100
AcDbEntity
  8
0
  6
CONTINUOUS
 62
    7
370
   18
100
AcDbLine
 10
96.90190643687947
 20
90.99999999999994
 11
97.40160185038894
 21
90.99999999999994
  0
LINE
  5
11D
100
AcDbEntity
  8
0
  6
CONTINUOUS
 62
    7
370
   18
100
AcDbLine
 10
97.40160185038894
 20
0
 11
96.90190643687947
 21
0
  0
LINE
  5
11E
100
AcDbEntity
  8
0
  6
CONTINUOUS
 62
    7
370
   18
100
AcDbLine
 10
94.9450441086874
 20
0
 11
94.9450441086874
 21
90.99999999999994
  0
LINE
  5
11F
100
AcDbEntity
  8
0
  6
CONTINUOUS
 62
    7
370
   18
100
AcDbLine
 10
95.44473952219778
 20
90.99999999999994
 11
95.44473952219778
 21
0
  0
LINE
  5
120
100
AcDbEntity
  8
0
  6
CONTINUOUS
 62
    7
370
   18
100
AcDbLine
 10
94.9450441086874
 20
90.99999999999994
 11
95.44473952219778
 21
90.99999999999994
  0
LINE
  5
121
100
AcDbEntity
  8
0
  6
CONTINUOUS
 62
    7
370
   18
100
AcDbLine
 10
95.44473952219778
 20
0
 11
94.9450441086874
 21
0
  0
LINE
  5
122
100
AcDbEntity
  8
0
  6
CONTINUOUS
 62
    7
370
   18
100
AcDbLine
 10
3.590159974505696
 20
90.99999999999994
 11
2.132993059823093
 21
90.99999999999994
  0
LINE
  5
123
100
AcDbEntity
  8
0
  6
CONTINUOUS
 62
    7
370
   18
100
AcDbLine
 10
2.132993059823093
 20
0
 11
3.590159974505696
 21
0
  0
LINE
  5
124
100
AcDbEntity
  8
0
  6
CONTINUOUS
 62
    7
370
   18
100
AcDbLine
 10
95.44473952219778
 20
90.99999999999994
 11
96.90190643687947
 21
90.99999999999994
  0
LINE
  5
125
100
AcDbEntity
  8
0
  6
CONTINUOUS
 62
    7
370
   18
100
AcDbLine
 10
96.90190643687947
 20
0
 11
95.44473952219778
 21
0
  0
LINE
  5
126
100
AcDbEntity
  8
0
  6
CONTINUOUS
 62
    7
370
   18
100
AcDbLine
 10
94.71395767140166
 20
0
 11
94.71395767140166
 21
90.99999999999994
  0
LINE
  5
127
100
AcDbEntity
  8
0
  6
CONTINUOUS
 62
    7
370
   18
100
AcDbLine
 10
94.9450441086874
 20
90.99999999999994
 11
94.71395767140166
 21
90.99999999999994
  0
LINE
  5
128
100
AcDbEntity
  8
0
  6
CONTINUOUS
 62
    7
370
   18
100
AcDbLine
 10
94.9450441086874
 20
0
 11
94.71395767140166
 21
0
  0
LINE
  5
129
100
AcDbEntity
  8
0
  6
CONTINUOUS
 62
    7
370
   18
100
AcDbLine
 10
97.51744974835128
 20
90.99999999999994
 11
97.51744974835128
 21
0
  0
LINE
  5
12A
100
AcDbEntity
  8
0
  6
CONTINUOUS
 62
    7
370
   18
100
AcDbLine
 10
97.51744974835128
 20
90.99999999999994
 11
97.40160185038894
 21
90.99999999999994
  0
LINE
  5
12B
100
AcDbEntity
  8
0
  6
CONTINUOUS
 62
    7
370
   18
100
AcDbLine
 10
97.51744974835128
 20
0
 11
97.40160185038894
 21
0
  0
LINE
  5
12C
100
AcDbEntity
  8
0
  6
CONTINUOUS
 62
    7
370
   18
100
AcDbLine
 10
1.517449748351282
 20
90.99999999999994
 11
1.517449748351282
 21
0
  0
LINE
  5
12D
100
AcDbEntity
  8
0
  6
CONTINUOUS
 62
    7
370
   18
100
AcDbLine
 10
1.633297646313622
 20
90.99999999999994
 11
1.517449748351282
 21
90.99999999999994
  0
LINE
  5
12E
100
AcDbEntity
  8
0
  6
CONTINUOUS
 62
    7
370
   18
100
AcDbLine
 10
1.633297646313622
 20
0
 11
1.517449748351282
 21
0
  0
LINE
  5
12F
100
AcDbEntity
  8
0
  6
CONTINUOUS
 62
    7
370
   18
100
AcDbLine
 10
4.320941825300906
 20
0
 11
4.320941825300906
 21
90.99999999999994
  0
LINE
  5
130
100
AcDbEntity
  8
0
  6
CONTINUOUS
 62
    7
370
   18
100
AcDbLine
 10
4.089855388015167
 20
90.99999999999994
 11
4.320941825300906
 21
90.99999999999994
  0
LINE
  5
131
100
AcDbEntity
  8
0
  6
CONTINUOUS
 62
    7
370
   18
100
AcDbLine
 10
4.089855388015167
 20
0
 11
4.320941825300906
 21
0
  0
LINE
  5
132
100
AcDbEntity
  8
0
  6
CONTINUOUS
 62
    7
370
   18
100
AcDbLine
 10
0
 20
90.99999999999994
 11
0
 21
0
  0
LINE
  5
133
100
AcDbEntity
  8
0
  6
CONTINUOUS
 62
    7
370
   18
100
AcDbLine
 10
1.517449748351282
 20
90.99999999999994
 11
0
 21
90.99999999999994
  0
LINE
  5
134
100
AcDbEntity
  8
0
  6
CONTINUOUS
 62
    7
370
   18
100
AcDbLine
 10
1.517449748351282
 20
0
 11
0
 21
0
  0
LINE
  5
135
100
AcDbEntity
  8
0
  6
CONTINUOUS
 62
    7
370
   18
100
AcDbLine
 10
99.03489949670256
 20
0
 11
99.03489949670256
 21
90.99999999999994
  0
LINE
  5
136
100
AcDbEntity
  8
0
  6
CONTINUOUS
 62
    7
370
   18
100
AcDbLine
 10
97.51744974835128
 20
90.99999999999994
 11
99.03489949670256
 21
90.99999999999994
  0
LINE
  5
137
100
AcDbEntity
  8
0
  6
CONTINUOUS
 62
    7
370
   18
100
AcDbLine
 10
97.51744974835128
 20
0
 11
99.03489949670256
 21
0
  0
LINE
  5
138
100
AcDbEntity
  8
0
  6
CONTINUOUS
 62
    7
370
   18
100
AcDbLine
 10
99.51744974835128
 20
90.99999999999994
 11
99.51744974835128
 21
0
  0
LINE
  5
139
100
AcDbEntity
  8
0
  6
CONTINUOUS
 62
    7
370
   18
100
AcDbLine
 10
99.03489949670256
 20
90.99999999999994
 11
99.51744974835128
 21
90.99999999999994
  0
LINE
  5
13A
100
AcDbEntity
  8
0
  6
CONTINUOUS
 62
    7
370
   18
100
AcDbLine
 10
99.51744974835128
 20
0
 11
99.03489949670256
 21
0
  0
LINE
  5
13B
100
AcDbEntity
  8
0
  6
CONTINUOUS
 62
    7
370
   18
100
AcDbLine
 10
-0.4825502516487177
 20
0
 11
-0.4825502516487177
 21
90.99999999999994
  0
LINE
  5
13C
100
AcDbEntity
  8
0
  6
CONTINUOUS
 62
    7
370
   18
100
AcDbLine
 10
-0.4825502516487177
 20
90.99999999999994
 11
0
 21
90.99999999999994
  0
LINE
  5
13D
100
AcDbEntity
  8
0
  6
CONTINUOUS
 62
    7
370
   18
100
AcDbLine
 10
0
 20
0
 11
-0.4825502516487177
 21
0
  0
LINE
  5
13E
100
AcDbEntity
  8
0
  6
CONTINUOUS
 62
    7
370
   18
100
AcDbLine
 10
93.51268743987566
 20
90.99999999999994
 11
93.51268743987566
 21
0
  0
LINE
  5
13F
100
AcDbEntity
  8
0
  6
CONTINUOUS
 62
    7
370
   18
100
AcDbLine
 10
93.6139576714022
 20
90.99999999999994
 11
93.6139576714022
 21
0
  0
LINE
  5
140
100
AcDbEntity
  8
0
  6
CONTINUOUS
 62
    7
370
   18
100
AcDbLine
 10
93.6139576714022
 20
90.99999999999994
 11
93.51268743987566
 21
90.99999999999994
  0
LINE
  5
141
100
AcDbEntity
  8
0
  6
CONTINUOUS
 62
    7
370
   18
100
AcDbLine
 10
93.6139576714022
 20
0
 11
93.51268743987566
 21
0
  0
LINE
  5
142
100
AcDbEntity
  8
0
  6
CONTINUOUS
 62
    7
370
   18
100
AcDbLine
 10
93.6139576714022
 20
90.99999999999994
 11
94.71395767140166
 21
90.99999999999994
  0
LINE
  5
143
100
AcDbEntity
  8
0
  6
CONTINUOUS
 62
    7
370
   18
100
AcDbLine
 10
93.6139576714022
 20
0
 11
94.71395767140166
 21
0
  0
LINE
  5
144
100
AcDbEntity
  8
0
  6
CONTINUOUS
 62
    7
370
   18
100
AcDbLine
 10
5.522212056826902
 20
90.99999999999994
 11
5.522212056826902
 21
0
  0
LINE
  5
145
100
AcDbEntity
  8
0
  6
CONTINUOUS
 62
    7
370
   18
100
AcDbLine
 10
5.420941825300361
 20
0
 11
5.420941825300361
 21
90.99999999999994
  0
LINE
  5
146
100
AcDbEntity
  8
0
  6
CONTINUOUS
 62
    7
370
   18
100
AcDbLine
 10
5.522212056826902
 20
90.99999999999994
 11
5.420941825300361
 21
90.99999999999994
  0
LINE
  5
147
100
AcDbEntity
  8
0
  6
CONTINUOUS
 62
    7
370
   18
100
AcDbLine
 10
5.522212056826902
 20
0
 11
5.420941825300361
 21
0
  0
LINE
  5
148
100
AcDbEntity
  8
0
  6
CONTINUOUS
 62
    7
370
   18
100
AcDbLine
 10
4.320941825300906
 20
90.99999999999994
 11
5.420941825300361
 21
90.99999999999994
  0
LINE
  5
149
100
AcDbEntity
  8
0
  6
CONTINUOUS
 62
    7
370
   18
100
AcDbLine
 10
4.320941825300906
 20
0
 11
5.420941825300361
 21
0
  0
LINE
  5
14A
100
AcDbEntity
  8
0
  6
CONTINUOUS
 62
    7
370
   18
100
AcDbLine
 10
59.29244658835159
 20
47.46573081999998
 11
59.29244658835159
 21
12.06573082
  0
LINE
  5
14B
100
AcDbEntity
  8
0
  6
CONTINUOUS
 62
    7
370
   18
100
AcDbLine
 10
59.29244658835159
 20
12.06573082
 11
37.85211666863779
 21
12.06573082
  0
LINE
  5
14C
100
AcDbEntity
  8
0
  6
CONTINUOUS
 62
    7
370
   18
100
AcDbLine
 10
37.85211666863779
 20
47.46573081999998
 11
37.85211666863779
 21
12.06573082
  0
LINE
  5
14D
100
AcDbEntity
  8
0
  6
CONTINUOUS
 62
    7
370
   18
100
AcDbLine
 10
37.85211666863779
 20
47.46573081999998
 11
59.29244658835159
 21
47.46573081999998
  0
LINE
  5
14E
100
AcDbEntity
  8
0
  6
CONTINUOUS
 62
    7
370
   18
100
AcDbLine
 10
37.35242125512741
 20
12.06573082
 11
37.35242125512741
 21
47.46573081999998
  0
LINE
  5
14F
100
AcDbEntity
  8
0
  6
CONTINUOUS
 62
    7
370
   18
100
AcDbLine
 10
37.35242125512741
 20
47.46573081999998
 11
37.85211666863779
 21
47.46573081999998
  0
LINE
  5
150
100
AcDbEntity
  8
0
  6
CONTINUOUS
 62
    7
370
   18
100
AcDbLine
 10
37.85211666863779
 20
12.06573082
 11
37.35242125512741
 21
12.06573082
  0
LINE
  5
151
100
AcDbEntity
  8
0
  6
CONTINUOUS
 62
    7
370
   18
100
AcDbLine
 10
80.63596399852577
 20
47.46573081999998
 11
80.63596399852577
 21
12.06573082
  0
LINE
  5
152
100
AcDbEntity
  8
0
  6
CONTINUOUS
 62
    7
370
   18
100
AcDbLine
 10
80.13626858501539
 20
12.06573082
 11
80.13626858501539
 21
47.46573081999998
  0
LINE
  5
153
100
AcDbEntity
  8
0
  6
CONTINUOUS
 62
    7
370
   18
100
AcDbLine
 10
80.13626858501539
 20
47.46573081999998
 11
80.63596399852577
 21
47.46573081999998
  0
LINE
  5
154
100
AcDbEntity
  8
0
  6
CONTINUOUS
 62
    7
370
   18
100
AcDbLine
 10
80.63596399852577
 20
12.06573082
 11
80.13626858501539
 21
12.06573082
  0
LINE
  5
155
100
AcDbEntity
  8
0
  6
CONTINUOUS
 62
    7
370
   18
100
AcDbLine
 10
59.29244658835159
 20
47.46573081999998
 11
80.13626858501539
 21
47.46573081999998
  0
LINE
  5
156
100
AcDbEntity
  8
0
  6
CONTINUOUS
 62
    7
370
   18
100
AcDbLine
 10
80.13626858501539
 20
12.06573082
 11
59.29244658835159
 21
12.06573082
  0
LINE
  5
157
100
AcDbEntity
  8
0
  6
CONTINUOUS
 62
    7
370
   18
100
AcDbLine
 10
37.29244658835159
 20
47.46573081999998
 11
37.29244658835159
 21
12.06573082
  0
LINE
  5
158
100
AcDbEntity
  8
0
  6
CONTINUOUS
 62
    7
370
   18
100
AcDbLine
 10
37.35242125512741
 20
47.46573081999998
 11
37.29244658835159
 21
47.46573081999998
  0
LINE
  5
159
100
AcDbEntity
  8
0
  6
CONTINUOUS
 62
    7
370
   18
100
AcDbLine
 10
37.35242125512741
 20
12.06573082
 11
37.29244658835159
 21
12.06573082
  0
LINE
  5
15A
100
AcDbEntity
  8
0
  6
CONTINUOUS
 62
    7
370
   18
100
AcDbLine
 10
80.69244658835123
 20
12.06573082
 11
80.69244658835123
 21
47.46573081999998
  0
LINE
  5
15B
100
AcDbEntity
  8
0
  6
CONTINUOUS
 62
    7
370
   18
100
AcDbLine
 10
80.63596399852577
 20
47.46573081999998
 11
80.69244658835123
 21
47.46573081999998
  0
LINE
  5
15C
100
AcDbEntity
  8
0
  6
CONTINUOUS
 62
    7
370
   18
100
AcDbLine
 10
80.63596399852577
 20
12.06573082
 11
80.69244658835123
 21
12.06573082
  0
CIRCLE
  5
15D
100
AcDbEntity
  8
0
  6
CONTINUOUS
 62
    7
370
   18
100
AcDbCircle
 10
91.51744338835124
 20
62.00000619999997
 40
1.5
  0
CIRCLE
  5
15E
100
AcDbEntity
  8
0
  6
CONTINUOUS
 62
    7
370
   18
100
AcDbCircle
 10
91.51744338835124
 20
4.000007899999957
 40
1.5
  0
CIRCLE
  5
15F
100
AcDbEntity
  8
0
  6
CONTINUOUS
 62
    7
370
   18
100
AcDbCircle
 10
8.017442748351641
 20
4.000007899999957
 40
1.5
  0
CIRCLE
  5
160
100
AcDbEntity
  8
0
  6
CONTINUOUS
 62
    7
370
   18
100
AcDbCircle
 10
8.017442748351641
 20
62.00000619999997
 40
1.5
  0
CIRCLE
  5
161
100
AcDbEntity
  8
0
  6
CONTINUOUS
 62
    7
370
   18
100
AcDbCircle
 10
12.51744974835128
 20
15.5
 40
1.300000000000011
  0
CIRCLE
  5
162
100
AcDbEntity
  8
0
  6
CONTINUOUS
 62
    7
370
   18
100
AcDbCircle
 10
12.51744974835128
 20
84.50000000000006
 40
1.300000000000011
  0
CIRCLE
  5
163
100
AcDbEntity
  8
0
  6
CONTINUOUS
 62
    7
370
   18
100
AcDbCircle
 10
86.51744974835128
 20
15.5
 40
1.300000000000011
  0
CIRCLE
  5
164
100
AcDbEntity
  8
0
  6
CONTINUOUS
 62
    7
370
   18
100
AcDbCircle
 10
87.51744974835128
 20
75.50000000000006
 40
1.299999999999983
  0
LINE
  5
165
100
AcDbEntity
  8
0
  6
CONTINUOUS
 62
    7
370
   18
100
AcDbLine
 10
93.51268743987566
 20
90.99999999999994
 11
5.522212056826902
 21
90.99999999999994
  0
LINE
  5
166
100
AcDbEntity
  8
0
  6
CONTINUOUS
 62
    7
370
   18
100
AcDbLine
 10
93.51268743987566
 20
0
 11
5.522212056826902
 21
0
  0
ENDSEC
  0
SECTION
  2
OBJECTS
  0
DICTIONARY
  5
C
330
0
100
AcDbDictionary
281
    1
  3
ACAD_GROUP
350
D
  0
DICTIONARY
  5
D
330
C
100
AcDbDictionary
281
    1
  0
ENDSEC
  0
EOF
