999
dxfrw 0.6.3
  0
SECTION
  2
HEADER
  9
$ACADVER
  1
AC1021
  9
$DWGCODEPAGE
  3
ANSI_949
  9
$INSBASE
 10
0
 20
0
 30
0
  9
$EXTMIN
 10
-166
 20
-325.9999799882027
 30
0
  9
$EXTMAX
 10
249.0041365167302
 20
155
 30
0
  9
$LIMMIN
 10
0
 20
0
  9
$LIMMAX
 10
12
 20
9
  9
$ORTHOMODE
 70
    0
  9
$REGENMODE
 70
    1
  9
$FILLMODE
 70
    1
  9
$QTEXTMODE
 70
    0
  9
$MIRRTEXT
 70
    1
  9
$LTSCALE
 40
1
  9
$ATTMODE
 70
    1
  9
$TEXTSIZE
 40
0.2
  9
$TRACEWID
 40
0.05
  9
$TEXTSTYLE
  7
STANDARD
  9
$CLAYER
  8
0
  9
$CELTYPE
  6
BYLAYER
  9
$CECOLOR
 62
  256
  9
$CELTSCALE
 40
1
  9
$DISPSILH
 70
    0
  9
$DIMSCALE
 40
1
  9
$DIMASZ
 40
0.18
  9
$DIMEXO
 40
0.0625
  9
$DIMDLI
 40
0.38
  9
$DIMRND
 40
0
  9
$DIMDLE
 40
0
  9
$DIMEXE
 40
0.18
  9
$DIMTP
 40
0
  9
$DIMTM
 40
0
  9
$DIMTXT
 40
5
  9
$DIMCEN
 40
0.09
  9
$DIMTSZ
 40
0
  9
$DIMTOL
 70
    0
  9
$DIMLIM
 70
    0
  9
$DIMTIH
 70
    1
  9
$DIMTOH
 70
    1
  9
$DIMSE1
 70
    0
  9
$DIMSE2
 70
    0
  9
$DIMTAD
 70
    0
  9
$DIMZIN
 70
    0
  9
$DIMBLK
  1

  9
$DIMASO
 70
    1
  9
$DIMSHO
 70
    1
  9
$DIMPOST
  1

  9
$DIMAPOST
  1

  9
$DIMALT
 70
    0
  9
$DIMALTD
 70
    2
  9
$DIMALTF
 40
25.4
  9
$DIMLFAC
 40
1
  9
$DIMTOFL
 70
    0
  9
$DIMTVP
 40
0
  9
$DIMTIX
 70
    0
  9
$DIMSOXD
 70
    0
  9
$DIMSAH
 70
    0
  9
$DIMBLK1
  1

  9
$DIMBLK2
  1

  9
$DIMSTYLE
  2
STANDARD
  9
$DIMCLRD
 70
    0
  9
$DIMCLRE
 70
    0
  9
$DIMCLRT
 70
    0
  9
$DIMTFAC
 40
1
  9
$DIMGAP
 40
0.09
  9
$DIMJUST
 70
    0
  9
$DIMSD1
 70
    0
  9
$DIMSD2
 70
    0
  9
$DIMTOLJ
 70
    1
  9
$DIMTZIN
 70
    0
  9
$DIMALTZ
 70
    0
  9
$DIMALTTZ
 70
    0
  9
$DIMUPT
 70
    0
  9
$DIMDEC
 70
    4
  9
$DIMTDEC
 70
    4
  9
$DIMALTU
 70
    2
  9
$DIMALTTD
 70
    2
  9
$DIMTXSTY
  7
standard
  9
$DIMAUNIT
 70
    0
  9
$DIMADEC
 70
    0
  9
$DIMALTRND
 40
0
  9
$DIMAZIN
 70
    0
  9
$DIMDSEP
 70
   44
  9
$DIMATFIT
 70
    3
  9
$DIMFRAC
 70
    0
  9
$DIMLDRBLK
  1
STANDARD
  9
$DIMLUNIT
 70
    2
  9
$DIMLWD
 70
   -2
  9
$DIMLWE
 70
   -2
  9
$DIMTMOVE
 70
    0
  9
$DIMFXL
 40
1
  9
$DIMFXLON
 70
    0
  9
$DIMJOGANG
 40
0.7854
  9
$DIMTFILL
 70
    0
  9
$DIMTFILLCLR
 70
    0
  9
$DIMARCSYM
 70
    0
  9
$DIMLTYPE
  6

  9
$DIMLTEX1
  6

  9
$DIMLTEX2
  6

  9
$LUNITS
 70
    2
  9
$LUPREC
 70
    1
  9
$SKETCHINC
 40
0.1
  9
$FILLETRAD
 40
0.5
  9
$AUNITS
 70
    0
  9
$AUPREC
 70
    0
  9
$MENU
  1
.
  9
$ELEVATION
 40
0
  9
$PELEVATION
 40
0
  9
$THICKNESS
 40
0
  9
$LIMCHECK
 70
    0
  9
$CHAMFERA
 40
0
  9
$CHAMFERB
 40
0
  9
$CHAMFERC
 40
0
  9
$CHAMFERD
 40
0
  9
$SKPOLY
 70
    0
  9
$USRTIMER
 70
    1
  9
$ANGBASE
 50
0
  9
$ANGDIR
 70
    0
  9
$PDMODE
 70
    0
  9
$PDSIZE
 40
0
  9
$PLINEWID
 40
0
  9
$SPLFRAME
 70
    0
  9
$SPLINETYPE
 70
    6
  9
$SPLINESEGS
 70
    8
  9
$HANDSEED
  5
20000
  9
$SURFTAB1
 70
    6
  9
$SURFTAB2
 70
    6
  9
$SURFTYPE
 70
    6
  9
$SURFU
 70
    6
  9
$SURFV
 70
    6
  9
$UCSBASE
  2

  9
$UCSNAME
  2

  9
$UCSORG
 10
0
 20
0
 30
0
  9
$UCSXDIR
 10
1
 20
0
 30
0
  9
$UCSYDIR
 10
0
 20
1
 30
0
  9
$UCSORTHOREF
  2

  9
$UCSORTHOVIEW
 70
    0
  9
$UCSORGTOP
 10
0
 20
0
 30
0
  9
$UCSORGBOTTOM
 10
0
 20
0
 30
0
  9
$UCSORGLEFT
 10
0
 20
0
 30
0
  9
$UCSORGRIGHT
 10
0
 20
0
 30
0
  9
$UCSORGFRONT
 10
0
 20
0
 30
0
  9
$UCSORGBACK
 10
0
 20
0
 30
0
  9
$PUCSBASE
  2

  9
$PUCSNAME
  2

  9
$PUCSORG
 10
0
 20
0
 30
0
  9
$PUCSXDIR
 10
1
 20
0
 30
0
  9
$PUCSYDIR
 10
0
 20
1
 30
0
  9
$PUCSORTHOREF
  2

  9
$PUCSORTHOVIEW
 70
    0
  9
$PUCSORGTOP
 10
0
 20
0
 30
0
  9
$PUCSORGBOTTOM
 10
0
 20
0
 30
0
  9
$PUCSORGLEFT
 10
0
 20
0
 30
0
  9
$PUCSORGRIGHT
 10
0
 20
0
 30
0
  9
$PUCSORGFRONT
 10
0
 20
0
 30
0
  9
$PUCSORGBACK
 10
0
 20
0
 30
0
  9
$USERI1
 70
    0
  9
$USERI2
 70
    0
  9
$USERI3
 70
    0
  9
$USERI4
 70
    0
  9
$USERI5
 70
    0
  9
$USERR1
 40
0
  9
$USERR2
 40
0
  9
$USERR3
 40
0
  9
$USERR4
 40
0
  9
$USERR5
 40
0
  9
$WORLDVIEW
 70
    1
  9
$SHADEDGE
 70
    3
  9
$SHADEDIF
 70
   70
  9
$TILEMODE
 70
    1
  9
$MAXACTVP
 70
   64
  9
$PINSBASE
 10
0
 20
0
 30
0
  9
$PLIMCHECK
 70
    0
  9
$PEXTMIN
 10
1e+20
 20
1e+20
 30
1e+20
  9
$PEXTMAX
 10
-1e+20
 20
-1e+20
 30
-1e+20
  9
$GRIDMODE
 70
    1
  9
$SNAPSTYLE
 70
    0
  9
$GRIDUNIT
 10
0.1
 20
0.1
  9
$PLIMMIN
 10
0
 20
0
  9
$PLIMMAX
 10
12
 20
9
  9
$UNITMODE
 70
    0
  9
$VISRETAIN
 70
    1
  9
$PLINEGEN
 70
    0
  9
$PSLTSCALE
 70
    1
  9
$TREEDEPTH
 70
 3020
  9
$CMLSTYLE
  2
STANDARD
  9
$CMLJUST
 70
    0
  9
$CMLSCALE
 40
1
  9
$PROXYGRAPHICS
 70
    1
  9
$MEASUREMENT
 70
    1
  9
$CELWEIGHT
370
   -1
  9
$ENDCAPS
280
    0
  9
$JOINSTYLE
280
    0
  9
$LWDISPLAY
290
    0
  9
$INSUNITS
 70
    4
  9
$HYPERLINKBASE
  1

  9
$STYLESHEET
  1

  9
$XEDIT
290
    1
  9
$CEPSNTYPE
380
    0
  9
$PSTYLEMODE
290
    1
  9
$EXTNAMES
290
    1
  9
$PSVPSCALE
 40
1
  9
$OLESTARTUP
290
    0
  9
$SORTENTS
280
  127
  9
$INDEXCTL
280
    0
  9
$HIDETEXT
280
    1
  9
$XCLIPFRAME
290
    0
  9
$HALOGAP
280
    0
  9
$OBSCOLOR
 70
  257
  9
$OBSLTYPE
280
    0
  9
$INTERSECTIONDISPLAY
280
    0
  9
$INTERSECTIONCOLOR
 70
  257
  9
$DIMASSOC
280
    1
  9
$PROJECTNAME
  1

  9
$CAMERADISPLAY
290
    0
  9
$LENSLENGTH
 40
50
  9
$CAMERAHEIGHT
 40
0
  9
$STEPSPERSEC
 40
2
  9
$STEPSIZE
 40
50
  9
$3DDWFPREC
 40
2
  9
$PSOLWIDTH
 40
5
  9
$PSOLHEIGHT
 40
80
  9
$LOFTANG1
 40
1.570796326794897
  9
$LOFTANG2
 40
1.570796326794897
  9
$LOFTMAG1
 40
0
  9
$LOFTMAG2
 40
0
  9
$LOFTPARAM
 70
    7
  9
$LOFTNORMALS
280
    1
  9
$LATITUDE
 40
1
  9
$LONGITUDE
 40
1
  9
$NORTHDIRECTION
 40
0
  9
$TIMEZONE
 70
-8000
  9
$LIGHTGLYPHDISPLAY
280
    1
  9
$TILEMODELIGHTSYNCH
280
    1
  9
$SOLIDHIST
280
    1
  9
$SHOWHIST
280
    1
  9
$DWFFRAME
280
    2
  9
$DGNFRAME
280
    0
  9
$REALWORLDSCALE
290
    1
  9
$INTERFERECOLOR
 62
    1
  9
$CSHADOW
280
    0
  9
$SHADOWPLANELOCATION
 40
0
  0
ENDSEC
  0
SECTION
  2
CLASSES
  0
ENDSEC
  0
SECTION
  2
TABLES
  0
TABLE
  2
VPORT
  5
8
330
0
100
AcDbSymbolTable
 70
    1
  0
VPORT
  5
31
330
2
100
AcDbSymbolTableRecord
100
AcDbViewportTableRecord
  2
*ACTIVE
 70
    0
 10
0
 20
0
 11
1
 21
1
 12
419.1812343535417
 22
373.1691196060052
 13
0
 23
0
 14
10
 24
10
 15
0.1
 25
0.1
 16
0
 26
0
 36
1
 17
0
 27
0
 37
0
 40
1326.743025239991
 41
1.140360458765702
 42
50
 43
0
 44
0
 50
0
 51
0
 71
    0
 72
  100
 73
    1
 74
    3
 75
    0
 76
    1
 77
    0
 78
    0
281
    0
 65
    1
110
0
120
0
130
0
111
1
121
0
131
0
112
0
122
1
132
0
 79
    0
146
0
348
10020
 60
    3
 61
    5
292
1
282
    1
141
0
142
0
 63
  250
421
3358443
  0
ENDTAB
  0
TABLE
  2
LTYPE
  5
5
330
0
100
AcDbSymbolTable
 70
    4
  0
LTYPE
  5
14
330
5
100
AcDbSymbolTableRecord
100
AcDbLinetypeTableRecord
  2
ByBlock
 70
    0
  3

 72
   65
 73
    0
 40
0
  0
LTYPE
  5
15
330
5
100
AcDbSymbolTableRecord
100
AcDbLinetypeTableRecord
  2
ByLayer
 70
    0
  3

 72
   65
 73
    0
 40
0
  0
LTYPE
  5
16
330
5
100
AcDbSymbolTableRecord
100
AcDbLinetypeTableRecord
  2
Continuous
 70
    0
  3
Solid line
 72
   65
 73
    0
 40
0
  0
LTYPE
  5
32
330
5
100
AcDbSymbolTableRecord
100
AcDbLinetypeTableRecord
  2
DOT
 70
    0
  3
Dot . . . . . . . . . . . . . . . . . . . . . .
 72
   65
 73
    2
 40
6.35
 49
0
 74
    0
 49
-6.35
 74
    0
  0
LTYPE
  5
33
330
5
100
AcDbSymbolTableRecord
100
AcDbLinetypeTableRecord
  2
DOTTINY
 70
    0
  3
Dot (.15x) .....................................
 72
   65
 73
    2
 40
0.9525
 49
0
 74
    0
 49
-0.9525
 74
    0
  0
LTYPE
  5
34
330
5
100
AcDbSymbolTableRecord
100
AcDbLinetypeTableRecord
  2
DOT2
 70
    0
  3
Dot (.5x) .....................................
 72
   65
 73
    2
 40
3.175
 49
0
 74
    0
 49
-3.175
 74
    0
  0
LTYPE
  5
35
330
5
100
AcDbSymbolTableRecord
100
AcDbLinetypeTableRecord
  2
DOTX2
 70
    0
  3
Dot (2x) .  .  .  .  .  .  .  .  .  .  .  .  .
 72
   65
 73
    2
 40
12.7
 49
0
 74
    0
 49
-12.7
 74
    0
  0
LTYPE
  5
36
330
5
100
AcDbSymbolTableRecord
100
AcDbLinetypeTableRecord
  2
DASHED
 70
    0
  3
Dashed _ _ _ _ _ _ _ _ _ _ _ _ _ _ _ _ _
 72
   65
 73
    2
 40
19.05
 49
12.7
 74
    0
 49
-6.35
 74
    0
  0
LTYPE
  5
37
330
5
100
AcDbSymbolTableRecord
100
AcDbLinetypeTableRecord
  2
DASHEDTINY
 70
    0
  3
Dashed (.15x) _ _ _ _ _ _ _ _ _ _ _ _ _ _ _ _ _
 72
   65
 73
    2
 40
2.8575
 49
1.905
 74
    0
 49
-0.9525
 74
    0
  0
LTYPE
  5
38
330
5
100
AcDbSymbolTableRecord
100
AcDbLinetypeTableRecord
  2
DASHED2
 70
    0
  3
Dashed (.5x) _ _ _ _ _ _ _ _ _ _ _ _ _ _ _ _ _
 72
   65
 73
    2
 40
9.524999999999999
 49
6.35
 74
    0
 49
-3.175
 74
    0
  0
LTYPE
  5
39
330
5
100
AcDbSymbolTableRecord
100
AcDbLinetypeTableRecord
  2
DASHEDX2
 70
    0
  3
Dashed (2x) ____  ____  ____  ____  ____  ___
 72
   65
 73
    2
 40
38.09999999999999
 49
25.4
 74
    0
 49
-12.7
 74
    0
  0
LTYPE
  5
3A
330
5
100
AcDbSymbolTableRecord
100
AcDbLinetypeTableRecord
  2
DASHDOT
 70
    0
  3
Dash dot __ . __ . __ . __ . __ . __ . __ . __
 72
   65
 73
    4
 40
25.4
 49
12.7
 74
    0
 49
-6.35
 74
    0
 49
0
 74
    0
 49
-6.35
 74
    0
  0
LTYPE
  5
3B
330
5
100
AcDbSymbolTableRecord
100
AcDbLinetypeTableRecord
  2
DASHDOTTINY
 70
    0
  3
Dash dot (.15x) _._._._._._._._._._._._._._._.
 72
   65
 73
    4
 40
3.81
 49
1.905
 74
    0
 49
-0.9525
 74
    0
 49
0
 74
    0
 49
-0.9525
 74
    0
  0
LTYPE
  5
3C
330
5
100
AcDbSymbolTableRecord
100
AcDbLinetypeTableRecord
  2
DASHDOT2
 70
    0
  3
Dash dot (.5x) _._._._._._._._._._._._._._._.
 72
   65
 73
    4
 40
12.7
 49
6.35
 74
    0
 49
-3.175
 74
    0
 49
0
 74
    0
 49
-3.175
 74
    0
  0
LTYPE
  5
3D
330
5
100
AcDbSymbolTableRecord
100
AcDbLinetypeTableRecord
  2
DASHDOTX2
 70
    0
  3
Dash dot (2x) ____  .  ____  .  ____  .  ___
 72
   65
 73
    4
 40
50.8
 49
25.4
 74
    0
 49
-12.7
 74
    0
 49
0
 74
    0
 49
-12.7
 74
    0
  0
LTYPE
  5
3E
330
5
100
AcDbSymbolTableRecord
100
AcDbLinetypeTableRecord
  2
DIVIDE
 70
    0
  3
Divide ____ . . ____ . . ____ . . ____ . . ____
 72
   65
 73
    6
 40
31.75
 49
12.7
 74
    0
 49
-6.35
 74
    0
 49
0
 74
    0
 49
-6.35
 74
    0
 49
0
 74
    0
 49
-6.35
 74
    0
  0
LTYPE
  5
3F
330
5
100
AcDbSymbolTableRecord
100
AcDbLinetypeTableRecord
  2
DIVIDETINY
 70
    0
  3
Divide (.15x) __..__..__..__..__..__..__..__.._
 72
   65
 73
    6
 40
4.7625
 49
1.905
 74
    0
 49
-0.9525
 74
    0
 49
0
 74
    0
 49
-0.9525
 74
    0
 49
0
 74
    0
 49
-0.9525
 74
    0
  0
LTYPE
  5
40
330
5
100
AcDbSymbolTableRecord
100
AcDbLinetypeTableRecord
  2
DIVIDE2
 70
    0
  3
Divide (.5x) __..__..__..__..__..__..__..__.._
 72
   65
 73
    6
 40
15.875
 49
6.35
 74
    0
 49
-3.175
 74
    0
 49
0
 74
    0
 49
-3.175
 74
    0
 49
0
 74
    0
 49
-3.175
 74
    0
  0
LTYPE
  5
41
330
5
100
AcDbSymbolTableRecord
100
AcDbLinetypeTableRecord
  2
DIVIDEX2
 70
    0
  3
Divide (2x) ________  .  .  ________  .  .  _
 72
   65
 73
    6
 40
63.5
 49
25.4
 74
    0
 49
-12.7
 74
    0
 49
0
 74
    0
 49
-12.7
 74
    0
 49
0
 74
    0
 49
-12.7
 74
    0
  0
LTYPE
  5
42
330
5
100
AcDbSymbolTableRecord
100
AcDbLinetypeTableRecord
  2
BORDER
 70
    0
  3
Border __ __ . __ __ . __ __ . __ __ . __ __ .
 72
   65
 73
    6
 40
44.45
 49
12.7
 74
    0
 49
-6.35
 74
    0
 49
12.7
 74
    0
 49
-6.35
 74
    0
 49
0
 74
    0
 49
-6.35
 74
    0
  0
LTYPE
  5
43
330
5
100
AcDbSymbolTableRecord
100
AcDbLinetypeTableRecord
  2
BORDERTINY
 70
    0
  3
Border (.15x) __.__.__.__.__.__.__.__.__.__.__.
 72
   65
 73
    6
 40
6.6675
 49
1.905
 74
    0
 49
-0.9525
 74
    0
 49
1.905
 74
    0
 49
-0.9525
 74
    0
 49
0
 74
    0
 49
-0.9525
 74
    0
  0
LTYPE
  5
44
330
5
100
AcDbSymbolTableRecord
100
AcDbLinetypeTableRecord
  2
BORDER2
 70
    0
  3
Border (.5x) __.__.__.__.__.__.__.__.__.__.__.
 72
   65
 73
    6
 40
22.225
 49
6.35
 74
    0
 49
-3.175
 74
    0
 49
6.35
 74
    0
 49
-3.175
 74
    0
 49
0
 74
    0
 49
-3.175
 74
    0
  0
LTYPE
  5
45
330
5
100
AcDbSymbolTableRecord
100
AcDbLinetypeTableRecord
  2
BORDERX2
 70
    0
  3
Border (2x) ____  ____  .  ____  ____  .  ___
 72
   65
 73
    6
 40
88.89999999999999
 49
25.4
 74
    0
 49
-12.7
 74
    0
 49
25.4
 74
    0
 49
-12.7
 74
    0
 49
0
 74
    0
 49
-12.7
 74
    0
  0
LTYPE
  5
46
330
5
100
AcDbSymbolTableRecord
100
AcDbLinetypeTableRecord
  2
CENTER
 70
    0
  3
Center ____ _ ____ _ ____ _ ____ _ ____ _ ____
 72
   65
 73
    4
 40
50.8
 49
31.75
 74
    0
 49
-6.35
 74
    0
 49
6.35
 74
    0
 49
-6.35
 74
    0
  0
LTYPE
  5
47
330
5
100
AcDbSymbolTableRecord
100
AcDbLinetypeTableRecord
  2
CENTERTINY
 70
    0
  3
Center (.15x) ___ _ ___ _ ___ _ ___ _ ___ _ ___
 72
   65
 73
    4
 40
7.619999999999999
 49
4.7625
 74
    0
 49
-0.9525
 74
    0
 49
0.9525
 74
    0
 49
-0.9525
 74
    0
  0
LTYPE
  5
48
330
5
100
AcDbSymbolTableRecord
100
AcDbLinetypeTableRecord
  2
CENTER2
 70
    0
  3
Center (.5x) ___ _ ___ _ ___ _ ___ _ ___ _ ___
 72
   65
 73
    4
 40
28.575
 49
19.05
 74
    0
 49
-3.175
 74
    0
 49
3.175
 74
    0
 49
-3.175
 74
    0
  0
LTYPE
  5
49
330
5
100
AcDbSymbolTableRecord
100
AcDbLinetypeTableRecord
  2
CENTERX2
 70
    0
  3
Center (2x) ________  __  ________  __  _____
 72
   65
 73
    4
 40
101.6
 49
63.5
 74
    0
 49
-12.7
 74
    0
 49
12.7
 74
    0
 49
-12.7
 74
    0
  0
ENDTAB
  0
TABLE
  2
LAYER
  5
2
330
0
100
AcDbSymbolTable
 70
    1
  0
LAYER
  5
10
330
2
100
AcDbSymbolTableRecord
100
AcDbLayerTableRecord
  2
0
 70
    0
 62
    7
  6
CONTINUOUS
370
   -3
390
F
  0
LAYER
  5
4A
330
2
100
AcDbSymbolTableRecord
100
AcDbLayerTableRecord
  2
Layer_1
 70
    0
 62
    7
  6
CONTINUOUS
370
   -3
390
F
  0
ENDTAB
  0
TABLE
  2
STYLE
  5
3
330
0
100
AcDbSymbolTable
 70
    3
  0
STYLE
  5
4B
330
2
100
AcDbSymbolTableRecord
100
AcDbTextStyleTableRecord
  2
Standard
 70
    0
 40
0
 41
1
 50
0
 71
    0
 42
1
  3
txt
  4

  0
ENDTAB
  0
TABLE
  2
VIEW
  5
6
330
0
100
AcDbSymbolTable
 70
    0
  0
ENDTAB
  0
TABLE
  2
UCS
  5
7
330
0
100
AcDbSymbolTable
 70
    0
  0
ENDTAB
  0
TABLE
  2
APPID
  5
9
330
0
100
AcDbSymbolTable
 70
    1
  0
APPID
  5
12
330
9
100
AcDbSymbolTableRecord
100
AcDbRegAppTableRecord
  2
ACAD
 70
    0
  0
APPID
  5
4C
330
9
100
AcDbSymbolTableRecord
100
AcDbRegAppTableRecord
  2
LibreCad
 70
    0
  0
ENDTAB
  0
TABLE
  2
DIMSTYLE
  5
A
330
0
100
AcDbSymbolTable
 70
    1
100
AcDbDimStyleTable
 71
    1
  0
DIMSTYLE
105
4D
330
A
100
AcDbSymbolTableRecord
100
AcDbDimStyleTableRecord
  2
Standard
 70
    0
 40
1
 41
0.18
 42
0.0625
 43
0.38
 44
0.18
 45
0
 46
0
 47
0
 48
0
 49
1
140
5
141
0.09
142
0
143
25.4
144
1
145
0
146
1
147
0.09
148
0
 71
    0
 72
    0
 73
    1
 74
    1
 75
    0
 76
    0
 77
    0
 78
    0
 79
    0
170
    0
171
    2
172
    0
173
    0
174
    0
175
    0
176
    0
177
    0
178
    0
179
    0
271
    4
272
    4
273
    2
274
    2
275
    0
276
    0
277
    2
278
   44
279
    0
280
    0
281
    0
282
    0
283
    1
284
    0
285
    0
286
    0
288
    0
289
    3
340
standard
341

371
   -2
372
   -2
  0
ENDTAB
  0
TABLE
  2
BLOCK_RECORD
  5
1
330
0
100
AcDbSymbolTable
 70
    2
  0
BLOCK_RECORD
  5
1F
330
1
100
AcDbSymbolTableRecord
100
AcDbBlockTableRecord
  2
*Model_Space
 70
    0
280
    1
281
    0
  0
BLOCK_RECORD
  5
1E
330
1
100
AcDbSymbolTableRecord
100
AcDbBlockTableRecord
  2
*Paper_Space
 70
    0
280
    1
281
    0
  0
BLOCK_RECORD
  5
4E
330
1
100
AcDbSymbolTableRecord
100
AcDbBlockTableRecord
  2
ODROID-LOGO
 70
    0
280
    1
281
    0
  0
BLOCK_RECORD
  5
51
330
1
100
AcDbSymbolTableRecord
100
AcDbBlockTableRecord
  2
ODROID-LOGO-0
 70
    0
280
    1
281
    0
  0
BLOCK_RECORD
  5
54
330
1
100
AcDbSymbolTableRecord
100
AcDbBlockTableRecord
  2
ODROID-LOGO-1
 70
    0
280
    1
281
    0
  0
BLOCK_RECORD
  5
57
330
1
100
AcDbSymbolTableRecord
100
AcDbBlockTableRecord
  2
ODROID-LOGO-2
 70
    0
280
    1
281
    0
  0
BLOCK_RECORD
  5
5A
330
1
100
AcDbSymbolTableRecord
100
AcDbBlockTableRecord
  2
ODROID-LOGO-3
 70
    0
280
    1
281
    0
  0
ENDTAB
  0
ENDSEC
  0
SECTION
  2
BLOCKS
  0
BLOCK
  5
20
330
1F
100
AcDbEntity
  8
0
100
AcDbBlockBegin
  2
*Model_Space
 70
    0
 10
0
 20
0
 30
0
  3
*Model_Space
  1

  0
ENDBLK
  5
21
330
1F
100
AcDbEntity
  8
0
100
AcDbBlockEnd
  0
BLOCK
  5
1C
330
1B
100
AcDbEntity
  8
0
100
AcDbBlockBegin
  2
*Paper_Space
 70
    0
 10
0
 20
0
 30
0
  3
*Paper_Space
  1

  0
ENDBLK
  5
1D
330
1F
100
AcDbEntity
  8
0
100
AcDbBlockEnd
  0
BLOCK
  5
4F
330
4E
100
AcDbEntity
  8
0
100
AcDbBlockBegin
  2
ODROID-LOGO
 70
    0
 10
0
 20
0
  3
ODROID-LOGO
  1

  0
SPLINE
  5
5D
100
AcDbEntity
  8
0
  6
CONTINUOUS
 62
  255
370
   -3
100
AcDbSpline
210
0
220
0
230
0
 70
   11
 71
    3
 72
  101
 73
   97
 74
    0
 42
1e-07
 43
1e-07
 40
0
 40
0
 40
0
 40
0
 40
0.0158446293361482
 40
0.0158446293361482
 40
0.0158446293361482
 40
0.0313571932700797
 40
0.0313571932700797
 40
0.0313571932700797
 40
0.0332684429683859
 40
0.0332684429683859
 40
0.0332684429683859
 40
0.0357453955186861
 40
0.0357453955186861
 40
0.0357453955186861
 40
0.0496365216265651
 40
0.0496365216265651
 40
0.0496365216265651
 40
0.06618509013683931
 40
0.06618509013683931
 40
0.06618509013683931
 40
0.1159633446856475
 40
0.1159633446856475
 40
0.1159633446856475
 40
0.1676148821155846
 40
0.1676148821155846
 40
0.1676148821155846
 40
0.2325839835345676
 40
0.2325839835345676
 40
0.2325839835345676
 40
0.2968000540483794
 40
0.2968000540483794
 40
0.2968000540483794
 40
0.4070275953134707
 40
0.4070275953134707
 40
0.4070275953134707
 40
0.4369813470243806
 40
0.4369813470243806
 40
0.4369813470243806
 40
0.4654063238441727
 40
0.4654063238441727
 40
0.4654063238441727
 40
0.4944340942575091
 40
0.4944340942575091
 40
0.4944340942575091
 40
0.5264265485646622
 40
0.5264265485646622
 40
0.5264265485646622
 40
0.556778362683186
 40
0.556778362683186
 40
0.556778362683186
 40
0.5866701341352205
 40
0.5866701341352205
 40
0.5866701341352205
 40
0.6073783398757272
 40
0.6073783398757272
 40
0.6073783398757272
 40
0.6126183871651156
 40
0.6126183871651156
 40
0.6126183871651156
 40
0.6178586914061783
 40
0.6178586914061783
 40
0.6178586914061783
 40
0.6239744010449325
 40
0.6239744010449325
 40
0.6239744010449325
 40
0.7339084939182612
 40
0.7339084939182612
 40
0.7339084939182612
 40
0.766193457133031
 40
0.766193457133031
 40
0.766193457133031
 40
0.7896655848160353
 40
0.7896655848160353
 40
0.7896655848160353
 40
0.8156611635224854
 40
0.8156611635224854
 40
0.8156611635224854
 40
0.8499895528763067
 40
0.8499895528763067
 40
0.8499895528763067
 40
0.8843326917237692
 40
0.8843326917237692
 40
0.8843326917237692
 40
0.9185348655993755
 40
0.9185348655993755
 40
0.9185348655993755
 40
0.9521930479668549
 40
0.9521930479668549
 40
0.9521930479668549
 40
0.9771836509571731
 40
0.9771836509571731
 40
0.9771836509571731
 40
0.9885964652409468
 40
0.9885964652409468
 40
0.9885964652409468
 40
1
 40
1
 40
1
 40
1
 10
353.3912266701909
 20
240.1070610836311
 30
0
 10
353.2510185626514
 20
240.1070610836311
 30
0
 10
353.110810455112
 20
240.1070610836311
 30
0
 10
352.9706023475724
 20
240.1070610836311
 30
0
 10
352.8333326654537
 20
240.1070610836311
 30
0
 10
352.6929054357366
 20
240.1360794149055
 30
0
 10
352.5587933801056
 20
240.106806182023
 30
0
 10
352.5422698945648
 20
240.1031995275877
 30
0
 10
352.5258928102121
 20
240.0989508752961
 30
0
 10
352.5094151955863
 20
240.0951401343081
 30
0
 10
352.4880604403146
 20
240.0902014679386
 30
0
 10
352.4663163862073
 20
240.0869480900595
 30
0
 10
352.4445554984806
 20
240.084325159719
 30
0
 10
352.322517135011
 20
240.0696153679923
 30
0
 10
352.2007783888745
 20
240.0516509156541
 30
0
 10
352.0799750231894
 20
240.0289289665713
 30
0
 10
351.9360613650894
 20
240.0018601941651
 30
0
 10
351.7934130341843
 20
239.9671029382573
 30
0
 10
351.653023161604
 20
239.9254550919241
 30
0
 10
351.2307290635351
 20
239.8001779662985
 30
0
 10
350.8204845300497
 20
239.6179523546211
 30
0
 10
350.4484064110807
 20
239.3821886236247
 30
0
 10
350.0623260419921
 20
239.1375525011539
 30
0
 10
349.7113810431493
 20
238.8302404862972
 30
0
 10
349.4103655397905
 20
238.4863007378663
 30
0
 10
349.0317377633583
 20
238.0536813520807
 30
0
 10
348.7199079558725
 20
237.5476049742655
 30
0
 10
348.5225560835415
 20
237.0076320448226
 30
0
 10
348.3274916379382
 20
236.4739177259339
 30
0
 10
348.253393641067
 20
235.8938654516389
 30
0
 10
348.2447585605173
 20
235.3257277714898
 30
0
 10
349.2200853285888
 20
235.3257277714898
 30
0
 10
350.1954120966603
 20
235.3257277714898
 30
0
 10
351.1707388636764
 20
235.3257267749559
 30
0
 10
351.1710195913457
 20
235.5907665199521
 30
0
 10
351.2193816028688
 20
235.8621721030379
 30
0
 10
351.3229382666669
 20
236.1061437461006
 30
0
 10
351.4212096216681
 20
236.3376636026339
 30
0
 10
351.5720396881143
 20
236.5532085972893
 30
0
 10
351.7578145986612
 20
236.7227561888209
 30
0
 10
351.9475291404215
 20
236.8958992873123
 30
0
 10
352.1817221601726
 20
237.0281092708321
 30
0
 10
352.4267038866975
 20
237.1052720441059
 30
0
 10
352.6967062527192
 20
237.1903156579635
 30
0
 10
352.9936159080406
 20
237.2168095645284
 30
0
 10
353.2732521144608
 20
237.1727949536112
 30
0
 10
353.5385479894377
 20
237.1310375043004
 30
0
 10
353.8000756851883
 20
237.0229387233449
 30
0
 10
354.0185476698525
 20
236.8667478856827
 30
0
 10
354.2337082730623
 20
236.7129244336786
 30
0
 10
354.4180363178434
 20
236.5063544031654
 30
0
 10
354.5487513754686
 20
236.276421123125
 30
0
 10
354.639307209907
 20
236.1171296044772
 30
0
 10
354.7085770849089
 20
235.9429394292853
 30
0
 10
354.7473676633601
 20
235.7638600109051
 30
0
 10
354.7571833117082
 20
235.7185453838135
 30
0
 10
354.764745253897
 20
235.6727013666039
 30
0
 10
354.7703640977721
 20
235.6266775578258
 30
0
 10
354.7759832171737
 20
235.5806514922178
 30
0
 10
354.7796749994318
 20
235.5343655256501
 30
0
 10
354.7818389708066
 20
235.4880482454395
 30
0
 10
354.784364438792
 20
235.4339935524306
 30
0
 10
354.7843875693719
 20
235.3798350140941
 30
0
 10
354.7840539247952
 20
235.3257277714898
 30
0
 10
355.7566873674398
 20
235.3257277714898
 30
0
 10
356.7293208100846
 20
235.3257277714898
 30
0
 10
357.7019543056248
 20
235.3257258455373
 30
0
 10
357.6941109157664
 20
235.6112568866876
 30
0
 10
357.6861037653097
 20
235.8984091793274
 30
0
 10
357.6410795361645
 20
236.1804771020247
 30
0
 10
357.608345583572
 20
236.385548864157
 30
0
 10
357.5589118023073
 20
236.5884687009031
 30
0
 10
357.4956828396755
 20
236.786276783551
 30
0
 10
357.4256562320828
 20
237.0053508977812
 30
0
 10
357.3385420102078
 20
237.219451563609
 30
0
 10
357.2383560456815
 20
237.4264780493747
 30
0
 10
357.106055748124
 20
237.6998663008991
 30
0
 10
356.9484220706098
 20
237.9626264087819
 30
0
 10
356.7672287963973
 20
238.2063752594162
 30
0
 10
356.5859576709049
 20
238.4502288388825
 30
0
 10
356.3794571186291
 20
238.677112011105
 30
0
 10
356.1540086545843
 20
238.880819593722
 30
0
 10
355.9294855671201
 20
239.0836910374592
 30
0
 10
355.6852039593857
 20
239.2666627789451
 30
0
 10
355.4270823332173
 20
239.4245889186203
 30
0
 10
355.1730661762863
 20
239.5800032156504
 30
0
 10
354.9030167002992
 20
239.7117949880312
 30
0
 10
354.6241507209693
 20
239.8162534835006
 30
0
 10
354.4170976810621
 20
239.8938120622955
 30
0
 10
354.2046480118532
 20
239.9599164498176
 30
0
 10
353.9880214017495
 20
240.0041793719365
 30
0
 10
353.8890914451176
 20
240.0243935504417
 30
0
 10
353.7892615948804
 20
240.0400239206107
 30
0
 10
353.6895021497805
 20
240.0556380951064
 30
0
 10
353.5898238170351
 20
240.0712395740376
 30
0
 10
353.4900743487449
 20
240.0868543370336
 30
0
 10
353.3912266701899
 20
240.1070610836305
 30
0
  0
SPLINE
  5
5E
100
AcDbEntity
  8
0
  6
CONTINUOUS
 62
  255
370
   -3
100
AcDbSpline
210
0
220
0
230
0
 70
   11
 71
    3
 72
   71
 73
   67
 74
    0
 42
1e-07
 43
1e-07
 40
0
 40
0
 40
0
 40
0
 40
0.0249154988546502
 40
0.0249154988546502
 40
0.0249154988546502
 40
0.0514473952430896
 40
0.0514473952430896
 40
0.0514473952430896
 40
0.0780910618303329
 40
0.0780910618303329
 40
0.0780910618303329
 40
0.1096543678726288
 40
0.1096543678726288
 40
0.1096543678726288
 40
0.1435790727707335
 40
0.1435790727707335
 40
0.1435790727707335
 40
0.1773849875610086
 40
0.1773849875610086
 40
0.1773849875610086
 40
0.2039601921860667
 40
0.2039601921860667
 40
0.2039601921860667
 40
0.2082277052556973
 40
0.2082277052556973
 40
0.2082277052556973
 40
0.2125079984710584
 40
0.2125079984710584
 40
0.2125079984710584
 40
0.2169518774077575
 40
0.2169518774077575
 40
0.2169518774077575
 40
0.3274360841398333
 40
0.3274360841398333
 40
0.3274360841398333
 40
0.3477148672147899
 40
0.3477148672147899
 40
0.3477148672147899
 40
0.3923646513947699
 40
0.3923646513947699
 40
0.3923646513947699
 40
0.4572125512842822
 40
0.4572125512842822
 40
0.4572125512842822
 40
0.5273297352786263
 40
0.5273297352786263
 40
0.5273297352786263
 40
0.5871527179903194
 40
0.5871527179903194
 40
0.5871527179903194
 40
0.6366726528123275
 40
0.6366726528123275
 40
0.6366726528123275
 40
0.7076183570218345
 40
0.7076183570218345
 40
0.7076183570218345
 40
0.7858802239217433
 40
0.7858802239217433
 40
0.7858802239217433
 40
0.8524760013412738
 40
0.8524760013412738
 40
0.8524760013412738
 40
0.8896182083854686
 40
0.8896182083854686
 40
0.8896182083854686
 40
1
 40
1
 40
1
 40
1
 10
354.7829340236956
 20
232.7750884248773
 30
0
 10
354.7821457121493
 20
232.5550569309609
 30
0
 10
354.7553888228961
 20
232.3302846118931
 30
0
 10
354.6825008169664
 20
232.1226748376968
 30
0
 10
354.6048841883543
 20
231.9015963415233
 30
0
 10
354.4813542082389
 20
231.6923193046055
 30
0
 10
354.3261891531116
 20
231.5167520862109
 30
0
 10
354.1703704383738
 20
231.3404452605673
 30
0
 10
353.9766839385565
 20
231.1916129359014
 30
0
 10
353.7654207069257
 20
231.0880203898761
 30
0
 10
353.5151486201763
 20
230.965299921836
 30
0
 10
353.227593673475
 20
230.9018236093713
 30
0
 10
352.9489111151659
 20
230.9075211857179
 30
0
 10
352.6493790085412
 20
230.9136450244545
 30
0
 10
352.3431530840527
 20
231.000369719436
 30
0
 10
352.0833146105787
 20
231.1495037262975
 30
0
 10
351.8243859826104
 20
231.2981155283291
 30
0
 10
351.5957289833655
 20
231.5174388802762
 30
0
 10
351.438808778263
 20
231.7714183111661
 30
0
 10
351.3154520643188
 20
231.9710743591781
 30
0
 10
351.2308113238742
 20
232.2000151263397
 30
0
 10
351.195137864688
 20
232.4319780990155
 30
0
 10
351.1894093310619
 20
232.4692272954574
 30
0
 10
351.1849576403864
 20
232.5066872260091
 30
0
 10
351.1815497966521
 20
232.5442199495203
 30
0
 10
351.178131747269
 20
232.5818650742514
 30
0
 10
351.1757606397646
 20
232.6196140747487
 30
0
 10
351.1742154399628
 20
232.6573824588177
 30
0
 10
351.1726111851824
 20
232.6965942880062
 30
0
 10
351.1719451554832
 20
232.7358478429688
 30
0
 10
351.1718368362148
 20
232.7750882002898
 30
0
 10
350.1962350410528
 20
232.7750882002898
 30
0
 10
349.2206332458908
 20
232.7750882002898
 30
0
 10
348.245031450666
 20
232.7750882132195
 30
0
 10
348.2458285914586
 20
232.596023514965
 30
0
 10
348.2475604075912
 20
232.4164052712873
 30
0
 10
348.2661149616994
 20
232.2383026881609
 30
0
 10
348.3069683419749
 20
231.8461567754059
 30
0
 10
348.3974803791308
 20
231.4561424064331
 30
0
 10
348.5337710474637
 20
231.0861798822556
 30
0
 10
348.7317151983313
 20
230.5488582989299
 30
0
 10
349.0358543363297
 20
230.0416053005319
 30
0
 10
349.4117083768861
 20
229.6095982277104
 30
0
 10
349.8181028316272
 20
229.1424879671853
 30
0
 10
350.3292136959158
 20
228.7521913012994
 30
0
 10
350.8837452543711
 20
228.4767948615817
 30
0
 10
351.3568636819057
 20
228.2418305416595
 30
0
 10
351.8782085346951
 20
228.0876067484082
 30
0
 10
352.4027387333396
 20
228.0250180208347
 30
0
 10
352.8369314143404
 20
227.9732086731635
 30
0
 10
353.2824229391687
 20
227.9777398095386
 30
0
 10
353.7143953634802
 20
228.04561703234
 30
0
 10
354.3332691150716
 20
228.1428626646038
 30
0
 10
354.944451490548
 20
228.3699425359929
 30
0
 10
355.4751180038205
 20
228.7028907077774
 30
0
 10
356.0605086556254
 20
229.0701736292044
 30
0
 10
356.5734228792321
 20
229.5806351302912
 30
0
 10
356.9495289701728
 20
230.1603964328545
 30
0
 10
357.269570882161
 20
230.6537357332233
 30
0
 10
357.4952831759807
 20
231.2193032690022
 30
0
 10
357.611003725759
 20
231.7958613710843
 30
0
 10
357.6755441033276
 20
232.117422905919
 30
0
 10
357.7069819432298
 20
232.4471136907273
 30
0
 10
357.7070263573826
 20
232.7750882002898
 30
0
 10
356.7323289125521
 20
232.7750882002898
 30
0
 10
355.7576314677215
 20
232.7750882002898
 30
0
 10
354.782934022891
 20
232.7750882002898
 30
0
  0
SPLINE
  5
5F
100
AcDbEntity
  8
0
  6
CONTINUOUS
 62
  255
370
   -3
100
AcDbSpline
210
0
220
0
230
0
 70
   11
 71
    3
 72
   71
 73
   67
 74
    0
 42
1e-07
 43
1e-07
 40
0
 40
0
 40
0
 40
0
 40
0.0779663489067787
 40
0.0779663489067787
 40
0.0779663489067787
 40
0.1351361061592741
 40
0.1351361061592741
 40
0.1351361061592741
 40
0.1478049275695237
 40
0.1478049275695237
 40
0.1478049275695237
 40
0.2135600338563244
 40
0.2135600338563244
 40
0.2135600338563244
 40
0.2232398844386291
 40
0.2232398844386291
 40
0.2232398844386291
 40
0.2735204297111811
 40
0.2735204297111811
 40
0.2735204297111811
 40
0.3322840860586316
 40
0.3322840860586316
 40
0.3322840860586316
 40
0.3763218388699611
 40
0.3763218388699611
 40
0.3763218388699611
 40
0.3973752123017099
 40
0.3973752123017099
 40
0.3973752123017099
 40
0.4627163165117202
 40
0.4627163165117202
 40
0.4627163165117202
 40
0.4732155153465041
 40
0.4732155153465041
 40
0.4732155153465041
 40
0.529958173084521
 40
0.529958173084521
 40
0.529958173084521
 40
0.5413837991371989
 40
0.5413837991371989
 40
0.5413837991371989
 40
0.6078938643730186
 40
0.6078938643730186
 40
0.6078938643730186
 40
0.631438652171013
 40
0.631438652171013
 40
0.631438652171013
 40
0.6837348984879821
 40
0.6837348984879821
 40
0.6837348984879821
 40
0.7815523602746223
 40
0.7815523602746223
 40
0.7815523602746223
 40
0.843035544814289
 40
0.843035544814289
 40
0.843035544814289
 40
0.8677935919355555
 40
0.8677935919355555
 40
0.8677935919355555
 40
0.9331475606702099
 40
0.9331475606702099
 40
0.9331475606702099
 40
0.9835563959731392
 40
0.9835563959731392
 40
0.9835563959731392
 40
1
 40
1
 40
1
 40
1
 10
363.9747883072418
 20
240.1070610836311
 30
0
 10
362.739232551039
 20
240.1070610836311
 30
0
 10
361.5037224986079
 20
240.1070610836311
 30
0
 10
360.2681667424053
 20
240.1070610836311
 30
0
 10
360.2687151876622
 20
239.2010752230406
 30
0
 10
360.2692179291476
 20
238.2950436586786
 30
0
 10
360.269812078176
 20
237.3890120943167
 30
0
 10
360.2699034857188
 20
237.1882354265281
 30
0
 10
360.2699948932616
 20
237.1880983152139
 30
0
 10
360.4662011839095
 20
237.1880526114425
 30
0
 10
361.4845726183885
 20
237.1880069076711
 30
0
 10
362.5028983490963
 20
237.1878697963569
 30
0
 10
363.5212240798039
 20
237.1881440189853
 30
0
 10
363.6711324500171
 20
237.1881897227567
 30
0
 10
363.818527112803
 20
237.178317708133
 30
0
 10
363.9666987397027
 20
237.1459594379771
 30
0
 10
364.7363502501879
 20
236.9778609667441
 30
0
 10
365.3589270242869
 20
236.2278620779639
 30
0
 10
365.3635431051989
 20
235.4398376513735
 30
0
 10
365.3688904464533
 20
234.5188609537616
 30
0
 10
365.3799507591338
 20
233.5975643297499
 30
0
 10
365.359841099715
 20
232.6769075585378
 30
0
 10
365.3447588551508
 20
231.9869634253857
 30
0
 10
365.0041743506299
 20
231.4690482878075
 30
0
 10
364.4064147244043
 20
231.1259957796306
 30
0
 10
364.1206290417999
 20
230.9620106478241
 30
0
 10
363.8054101304094
 20
230.9009504092251
 30
0
 10
363.4784910535389
 20
230.9005847790539
 30
0
 10
362.4638673283151
 20
230.8993964809973
 30
0
 10
361.4492893068628
 20
230.9002191488826
 30
0
 10
360.4347112854105
 20
230.900036333797
 30
0
 10
360.2716859328037
 20
230.900036333797
 30
0
 10
360.2699491894902
 20
230.8986652206548
 30
0
 10
360.2699034857188
 20
230.7393418735318
 30
0
 10
360.2696749668617
 20
229.8782828202339
 30
0
 10
360.2696749668617
 20
229.017223766936
 30
0
 10
360.2698577819475
 20
228.156073306095
 30
0
 10
360.2699034857188
 20
227.982673197379
 30
0
 10
360.2740625289167
 20
227.9784684504096
 30
0
 10
360.4444918924915
 20
227.9783770428667
 30
0
 10
361.4365836584117
 20
227.9781942277812
 30
0
 10
362.428766831875
 20
227.9738980732689
 30
0
 10
363.4208128940239
 20
227.9806622314371
 30
0
 10
363.7720006735112
 20
227.9830388275503
 30
0
 10
364.1238283057982
 20
228.0047938227397
 30
0
 10
364.4694859289454
 20
228.0776456343615
 30
0
 10
365.2372635848027
 20
228.2393455775977
 30
0
 10
365.9323265403523
 20
228.556346936073
 30
0
 10
366.537215954917
 20
229.059728274344
 30
0
 10
367.6685214085415
 20
230.0014087804029
 30
0
 10
368.247085450776
 20
231.2166720621011
 30
0
 10
368.2829172075588
 20
232.6811123055073
 30
0
 10
368.3054491668622
 20
233.6015862616336
 30
0
 10
368.2916923316688
 20
234.523065700731
 30
0
 10
368.2847910621863
 20
235.4439966945715
 30
0
 10
368.2820031321306
 20
235.8148370957636
 30
0
 10
368.2328715778686
 20
236.1831637895284
 30
0
 10
368.1386304012286
 20
236.5429438780401
 30
0
 10
367.8897276621488
 20
237.4926225440952
 30
0
 10
367.4002859741569
 20
238.2945866209647
 30
0
 10
366.6599762849149
 20
238.9426660995084
 30
0
 10
366.0889076611909
 20
239.4424825436096
 30
0
 10
365.4361663979637
 20
239.7838897160159
 30
0
 10
364.7017524952332
 20
239.973011922096
 30
0
 10
364.4621733255204
 20
240.0346663097233
 30
0
 10
364.2163327391249
 20
240.058249455769
 30
0
 10
363.9747883072418
 20
240.1070610836311
 30
0
  0
SPLINE
  5
60
100
AcDbEntity
  8
0
  6
CONTINUOUS
 62
  255
370
   -3
100
AcDbSpline
210
0
220
0
230
0
 70
   11
 71
    3
 72
   89
 73
   85
 74
    0
 42
1e-07
 43
1e-07
 40
0
 40
0
 40
0
 40
0
 40
0.0792365922004859
 40
0.0792365922004859
 40
0.0792365922004859
 40
0.1305032249800642
 40
0.1305032249800642
 40
0.1305032249800642
 40
0.1418644888642732
 40
0.1418644888642732
 40
0.1418644888642732
 40
0.2118194159717775
 40
0.2118194159717775
 40
0.2118194159717775
 40
0.2256057506458701
 40
0.2256057506458701
 40
0.2256057506458701
 40
0.2595234464840558
 40
0.2595234464840558
 40
0.2595234464840558
 40
0.2865700715223597
 40
0.2865700715223597
 40
0.2865700715223597
 40
0.3027026935221367
 40
0.3027026935221367
 40
0.3027026935221367
 40
0.3740141955788207
 40
0.3740141955788207
 40
0.3740141955788207
 40
0.3841573586625491
 40
0.3841573586625491
 40
0.3841573586625491
 40
0.4362568410873484
 40
0.4362568410873484
 40
0.4362568410873484
 40
0.4471364719244966
 40
0.4471364719244966
 40
0.4471364719244966
 40
0.5184930001274254
 40
0.5184930001274254
 40
0.5184930001274254
 40
0.5399362324112346
 40
0.5399362324112346
 40
0.5399362324112346
 40
0.5636615376559566
 40
0.5636615376559566
 40
0.5636615376559566
 40
0.6001179186455018
 40
0.6001179186455018
 40
0.6001179186455018
 40
0.6088073703577489
 40
0.6088073703577489
 40
0.6088073703577489
 40
0.6636509126486707
 40
0.6636509126486707
 40
0.6636509126486707
 40
0.6706744813667771
 40
0.6706744813667771
 40
0.6706744813667771
 40
0.6963824148647423
 40
0.6963824148647423
 40
0.6963824148647423
 40
0.7228298955948674
 40
0.7228298955948674
 40
0.7228298955948674
 40
0.7815646910614941
 40
0.7815646910614941
 40
0.7815646910614941
 40
0.7880827441797852
 40
0.7880827441797852
 40
0.7880827441797852
 40
0.8433262073638906
 40
0.8433262073638906
 40
0.8433262073638906
 40
0.8885296219903166
 40
0.8885296219903166
 40
0.8885296219903166
 40
0.9476186442097189
 40
0.9476186442097189
 40
0.9476186442097189
 40
0.9857884898341596
 40
0.9857884898341596
 40
0.9857884898341596
 40
1
 40
1
 40
1
 40
1
 10
374.1735848965964
 20
240.1070610836311
 30
0
 10
372.7733127482448
 20
240.1070610836311
 30
0
 10
371.3730405998933
 20
240.1070610836311
 30
0
 10
369.9727684515418
 20
240.1070610836311
 30
0
 10
369.9724028213704
 20
239.2010752230406
 30
0
 10
369.9719914874278
 20
238.29508936245
 30
0
 10
369.9717629685707
 20
237.3891035018596
 30
0
 10
369.9716715610279
 20
237.1883268340709
 30
0
 10
369.9719000798851
 20
237.1880983152139
 30
0
 10
370.1682891856186
 20
237.1880983152139
 30
0
 10
371.3775195694911
 20
237.1879612038996
 30
0
 10
372.586795657135
 20
237.1863158681289
 30
0
 10
373.7959803372361
 20
237.1892409094991
 30
0
 10
374.0342798013496
 20
237.1898350585273
 30
0
 10
374.2463453006755
 20
237.1212794014176
 30
0
 10
374.4357417293839
 20
236.9831169004559
 30
0
 10
374.9016459751015
 20
236.6431265449631
 30
0
 10
375.0799820911295
 20
236.1676702110216
 30
0
 10
375.0395799572063
 20
235.6104041262624
 30
0
 10
375.0074045021361
 20
235.1660263568772
 30
0
 10
374.8196534091982
 20
234.7910726162586
 30
0
 10
374.4509153814909
 20
234.5203234744466
 30
0
 10
374.2309888334829
 20
234.3588063462961
 30
0
 10
373.9830915773742
 20
234.2929929154707
 30
0
 10
373.7137592524759
 20
234.2929929154707
 30
0
 10
372.5232217111085
 20
234.2932671380993
 30
0
 10
371.3327298735128
 20
234.2931757305565
 30
0
 10
370.1422380359169
 20
234.2929929154707
 30
0
 10
369.9729055628558
 20
234.2929929154707
 30
0
 10
369.9718086723422
 20
234.2920788400427
 30
0
 10
369.9718086723422
 20
234.1258999272088
 30
0
 10
369.9716258572566
 20
233.2723362924215
 30
0
 10
369.9716258572566
 20
232.4187726576342
 30
0
 10
369.9717629685707
 20
231.5652090228468
 30
0
 10
369.9718086723422
 20
231.3869643143616
 30
0
 10
369.9720828949707
 20
231.3866900917331
 30
0
 10
370.1530241259689
 20
231.3866900917331
 30
0
 10
371.3397682543093
 20
231.3865986841902
 30
0
 10
372.5265580864213
 20
231.3876041671612
 30
0
 10
373.7133022147619
 20
231.3860502389335
 30
0
 10
374.0699287430465
 20
231.3855932012195
 30
0
 10
374.37906905284
 20
231.2669462106482
 30
0
 10
374.6287944598049
 20
231.0038753024325
 30
0
 10
374.9050280541856
 20
230.7127422785732
 30
0
 10
375.0419565533194
 20
230.3643881329131
 30
0
 10
375.0457956701175
 20
229.9673137669336
 30
0
 10
375.0517371604004
 20
229.3571684186573
 30
0
 10
375.0472581908026
 20
228.7468402552952
 30
0
 10
375.0478066360594
 20
228.1366949070188
 30
0
 10
375.0478980436022
 20
227.9912655064033
 30
0
 10
375.0589583562825
 20
227.978742673038
 30
0
 10
375.1971665610158
 20
227.9786512654951
 30
0
 10
376.0694687420797
 20
227.9781028202383
 30
0
 10
376.9419080344579
 20
227.9798395635517
 30
0
 10
377.814118807979
 20
227.9765488920105
 30
0
 10
377.9258188252965
 20
227.9760918542964
 30
0
 10
377.9532410881404
 20
228.0198760673038
 30
0
 10
377.9521441976266
 20
228.1231665906825
 30
0
 10
377.9475738204861
 20
228.5012281877568
 30
0
 10
377.953972348483
 20
228.8793811923741
 30
0
 10
377.9492191562567
 20
229.2574427894482
 30
0
 10
377.9444659640304
 20
229.6463818841174
 30
0
 10
377.9711569665316
 20
230.0359608315861
 30
0
 10
377.928926681752
 20
230.4243514809984
 30
0
 10
377.8349597277403
 20
231.2868730549814
 30
0
 10
377.5196037050358
 20
232.0597238294649
 30
0
 10
376.9856008399225
 20
232.742355359192
 30
0
 10
376.9263687521797
 20
232.8181322121839
 30
0
 10
376.9230780806384
 20
232.8679493230169
 30
0
 10
376.9839555041518
 20
232.9443660288086
 30
0
 10
377.4998596757882
 20
233.5920798771811
 30
0
 10
377.8033327179272
 20
234.3297387476816
 30
0
 10
377.9124733240457
 20
235.1501214444278
 30
0
 10
378.0016870858312
 20
235.8214184388461
 30
0
 10
377.9464769299721
 20
236.4799183772705
 30
0
 10
377.7389818077868
 20
237.1232446635881
 30
0
 10
377.4680498508893
 20
237.9642854650101
 30
0
 10
376.9921821830049
 20
238.6691290276407
 30
0
 10
376.3009126404821
 20
239.2228759220015
 30
0
 10
375.8543867938409
 20
239.5805993408
 30
0
 10
375.3543875346541
 20
239.8347580135914
 30
0
 10
374.7995437497796
 20
239.9820612688345
 30
0
 10
374.5929627030221
 20
240.0369057945222
 30
0
 10
374.3801659433537
 20
240.0557814521131
 30
0
 10
374.1735848965964
 20
240.1070610836311
 30
0
  0
SPLINE
  5
61
100
AcDbEntity
  8
0
  6
CONTINUOUS
 62
  255
370
   -3
100
AcDbSpline
210
0
220
0
230
0
 70
   11
 71
    3
 72
   71
 73
   67
 74
    0
 42
1e-07
 43
1e-07
 40
0
 40
0
 40
0
 40
0
 40
0.0202780849681497
 40
0.0202780849681497
 40
0.0202780849681497
 40
0.0649263320579609
 40
0.0649263320579609
 40
0.0649263320579609
 40
0.1297719995275263
 40
0.1297719995275263
 40
0.1297719995275263
 40
0.1998867697043187
 40
0.1998867697043187
 40
0.1998867697043187
 40
0.2597076929812512
 40
0.2597076929812512
 40
0.2597076929812512
 40
0.3092259230558439
 40
0.3092259230558439
 40
0.3092259230558439
 40
0.3801691849255936
 40
0.3801691849255936
 40
0.3801691849255936
 40
0.4584283576233424
 40
0.4584283576233424
 40
0.4584283576233424
 40
0.5250218424514073
 40
0.5250218424514073
 40
0.5250218424514073
 40
0.5621627708573712
 40
0.5621627708573712
 40
0.5621627708573712
 40
0.6725407625259658
 40
0.6725407625259658
 40
0.6725407625259658
 40
0.6974580231805491
 40
0.6974580231805491
 40
0.6974580231805491
 40
0.7239917956660119
 40
0.7239917956660119
 40
0.7239917956660119
 40
0.7506373462536526
 40
0.7506373462536526
 40
0.7506373462536526
 40
0.7822028841689724
 40
0.7822028841689724
 40
0.7822028841689724
 40
0.8161299879169829
 40
0.8161299879169829
 40
0.8161299879169829
 40
0.8499382931573993
 40
0.8499382931573993
 40
0.8499382931573993
 40
0.8765153769418361
 40
0.8765153769418361
 40
0.8765153769418361
 40
0.8807831917715915
 40
0.8807831917715915
 40
0.8807831917715915
 40
0.8850637876507811
 40
0.8850637876507811
 40
0.8850637876507811
 40
0.889507980818626
 40
0.889507980818626
 40
0.889507980818626
 40
1
 40
1
 40
1
 40
1
 10
379.6755914506661
 20
232.7750882132195
 30
0
 10
379.6763885914586
 20
232.596023514965
 30
0
 10
379.6781204075913
 20
232.4164052712873
 30
0
 10
379.6966749616995
 20
232.2383026881609
 30
0
 10
379.737528341975
 20
231.8461567754059
 30
0
 10
379.8280403791308
 20
231.4561424064331
 30
0
 10
379.9643310474637
 20
231.0861798822556
 30
0
 10
380.1622751983313
 20
230.5488582989299
 30
0
 10
380.4664143363297
 20
230.0416053005319
 30
0
 10
380.842268376886
 20
229.6095982277104
 30
0
 10
381.2486628316271
 20
229.1424879671853
 30
0
 10
381.7597736959158
 20
228.7521913012994
 30
0
 10
382.3143052543712
 20
228.4767948615818
 30
0
 10
382.7874236819059
 20
228.2418305416597
 30
0
 10
383.3087685346951
 20
228.0876067484083
 30
0
 10
383.8332987333396
 20
228.0250180208347
 30
0
 10
384.2674914143404
 20
227.9732086731635
 30
0
 10
384.7129829391687
 20
227.9777398095386
 30
0
 10
385.1449553634801
 20
228.04561703234
 30
0
 10
385.7638291150716
 20
228.1428626646038
 30
0
 10
386.375011490548
 20
228.3699425359931
 30
0
 10
386.9056780038204
 20
228.7028907077775
 30
0
 10
387.4910686556253
 20
229.0701736292044
 30
0
 10
388.0039828792322
 20
229.5806351302912
 30
0
 10
388.3800889701728
 20
230.1603964328545
 30
0
 10
388.700130882161
 20
230.6537357332233
 30
0
 10
388.9258431759808
 20
231.2193032690022
 30
0
 10
389.0415637257589
 20
231.7958613710843
 30
0
 10
389.1061041033275
 20
232.117422905919
 30
0
 10
389.1375419432298
 20
232.4471136907273
 30
0
 10
389.1375863573826
 20
232.7750882002898
 30
0
 10
388.1628889125521
 20
232.7750882002898
 30
0
 10
387.1881914677215
 20
232.7750882002898
 30
0
 10
386.2134940236957
 20
232.7750884248773
 30
0
 10
386.2127057121494
 20
232.5550569309609
 30
0
 10
386.1859488228961
 20
232.3302846118931
 30
0
 10
386.1130608169665
 20
232.1226748376968
 30
0
 10
386.0354441883543
 20
231.9015963415233
 30
0
 10
385.911914208239
 20
231.6923193046055
 30
0
 10
385.7567491531116
 20
231.5167520862109
 30
0
 10
385.6009304383737
 20
231.3404452605673
 30
0
 10
385.4072439385565
 20
231.1916129359014
 30
0
 10
385.1959807069256
 20
231.0880203898761
 30
0
 10
384.9457086201762
 20
230.965299921836
 30
0
 10
384.658153673475
 20
230.9018236093713
 30
0
 10
384.3794711151659
 20
230.9075211857179
 30
0
 10
384.0799390085413
 20
230.9136450244545
 30
0
 10
383.7737130840528
 20
231.000369719436
 30
0
 10
383.5138746105788
 20
231.1495037262975
 30
0
 10
383.2549459826105
 20
231.2981155283291
 30
0
 10
383.0262889833655
 20
231.5174388802762
 30
0
 10
382.8693687782629
 20
231.7714183111661
 30
0
 10
382.7460120643187
 20
231.9710743591781
 30
0
 10
382.6613713238742
 20
232.2000151263397
 30
0
 10
382.625697864688
 20
232.4319780990155
 30
0
 10
382.6199693310618
 20
232.4692272954573
 30
0
 10
382.6155176403864
 20
232.5066872260091
 30
0
 10
382.6121097966521
 20
232.5442199495203
 30
0
 10
382.6086917472691
 20
232.5818650742514
 30
0
 10
382.6063206397646
 20
232.6196140747487
 30
0
 10
382.6047754399628
 20
232.6573824588177
 30
0
 10
382.6031711851824
 20
232.6965942880062
 30
0
 10
382.6025051554831
 20
232.7358478429688
 30
0
 10
382.6023968362148
 20
232.7750882002898
 30
0
 10
381.6267950410528
 20
232.7750882002898
 30
0
 10
380.6511932458907
 20
232.7750882002898
 30
0
 10
379.6755914507287
 20
232.7750882002898
 30
0
  0
SPLINE
  5
62
100
AcDbEntity
  8
0
  6
CONTINUOUS
 62
  255
370
   -3
100
AcDbSpline
210
0
220
0
230
0
 70
   11
 71
    3
 72
   35
 73
   31
 74
    0
 42
1e-07
 43
1e-07
 40
0
 40
0
 40
0
 40
0
 40
0.0960206016267463
 40
0.0960206016267463
 40
0.0960206016267463
 40
0.2673024222382769
 40
0.2673024222382769
 40
0.2673024222382769
 40
0.489164108842438
 40
0.489164108842438
 40
0.489164108842438
 40
0.505456386095638
 40
0.505456386095638
 40
0.505456386095638
 40
0.5460234391065609
 40
0.5460234391065609
 40
0.5460234391065609
 40
0.5917886001645701
 40
0.5917886001645701
 40
0.5917886001645701
 40
0.605147380827794
 40
0.605147380827794
 40
0.605147380827794
 40
0.6081029452017757
 40
0.6081029452017757
 40
0.6081029452017757
 40
0.9944503432626529
 40
0.9944503432626529
 40
0.9944503432626529
 40
1
 40
1
 40
1
 40
1
 10
393.8747897103852
 20
240.1070610836311
 30
0
 10
392.9012993794274
 20
240.1070610836311
 30
0
 10
391.9279918635551
 20
240.1070610836311
 30
0
 10
390.9545015325971
 20
240.1070610836311
 30
0
 10
390.9546843476828
 20
238.3705462890421
 30
0
 10
390.9548671627685
 20
236.6340314944533
 30
0
 10
390.9550499778541
 20
234.8975166998643
 30
0
 10
390.9552327929397
 20
232.6482055900946
 30
0
 10
390.9550499778541
 20
230.3990315916392
 30
0
 10
390.9552327929397
 20
228.149766185641
 30
0
 10
390.9552327929397
 20
227.984592755778
 30
0
 10
390.9612656907654
 20
227.9785598579523
 30
0
 10
391.1250680074862
 20
227.9784684504096
 30
0
 10
391.5329284635175
 20
227.9781028202383
 30
0
 10
391.940788919549
 20
227.978285635324
 30
0
 10
392.348832190666
 20
227.978285635324
 30
0
 10
392.8091605762718
 20
227.978285635324
 30
0
 10
393.2694889618779
 20
227.9778285976099
 30
0
 10
393.7298173474839
 20
227.9786512654951
 30
0
 10
393.8641864354188
 20
227.9789254881236
 30
0
 10
393.8757037858134
 20
227.9922709893743
 30
0
 10
393.877349121584
 20
228.1273713376518
 30
0
 10
393.8777147517554
 20
228.1572616041518
 30
0
 10
393.877349121584
 20
228.1872432781943
 30
0
 10
393.877349121584
 20
228.2171335446941
 30
0
 10
393.877349121584
 20
232.1243489622336
 30
0
 10
393.877349121584
 20
236.0315643797731
 30
0
 10
393.877349121584
 20
239.9387340935411
 30
0
 10
393.877349121584
 20
239.9948583248283
 30
0
 10
393.8757037858134
 20
240.0509825561155
 30
0
 10
393.8747897103852
 20
240.1070610836311
 30
0
  0
SPLINE
  5
63
100
AcDbEntity
  8
0
  6
CONTINUOUS
 62
  255
370
   -3
100
AcDbSpline
210
0
220
0
230
0
 70
   11
 71
    3
 72
   77
 73
   73
 74
    0
 42
1e-07
 43
1e-07
 40
0
 40
0
 40
0
 40
0
 40
0.0673971957956756
 40
0.0673971957956756
 40
0.0673971957956756
 40
0.0779031237574369
 40
0.0779031237574369
 40
0.0779031237574369
 40
0.1272754278268955
 40
0.1272754278268955
 40
0.1272754278268955
 40
0.2018971443151316
 40
0.2018971443151316
 40
0.2018971443151316
 40
0.2173737817864943
 40
0.2173737817864943
 40
0.2173737817864943
 40
0.2195450277201742
 40
0.2195450277201742
 40
0.2195450277201742
 40
0.2997083256417573
 40
0.2997083256417573
 40
0.2997083256417573
 40
0.3595742585942774
 40
0.3595742585942774
 40
0.3595742585942774
 40
0.3704687423949364
 40
0.3704687423949364
 40
0.3704687423949364
 40
0.4369650959641209
 40
0.4369650959641209
 40
0.4369650959641209
 40
0.4463771778729373
 40
0.4463771778729373
 40
0.4463771778729373
 40
0.4960261625065432
 40
0.4960261625065432
 40
0.4960261625065432
 40
0.5557940290623156
 40
0.5557940290623156
 40
0.5557940290623156
 40
0.5846273685323976
 40
0.5846273685323976
 40
0.5846273685323976
 40
0.6197295800512705
 40
0.6197295800512705
 40
0.6197295800512705
 40
0.6860297703622256
 40
0.6860297703622256
 40
0.6860297703622256
 40
0.6970877372933341
 40
0.6970877372933341
 40
0.6970877372933341
 40
0.7547655063070495
 40
0.7547655063070495
 40
0.7547655063070495
 40
0.7656336631745562
 40
0.7656336631745562
 40
0.7656336631745562
 40
0.8414033264353987
 40
0.8414033264353987
 40
0.8414033264353987
 40
0.8756473320628081
 40
0.8756473320628081
 40
0.8756473320628081
 40
0.9351965353699038
 40
0.9351965353699038
 40
0.9351965353699038
 40
0.9882504476125604
 40
0.9882504476125604
 40
0.9882504476125604
 40
1
 40
1
 40
1
 40
1
 10
403.5793457157502
 20
232.5142021323308
 30
0
 10
403.5793457157502
 20
233.5474729962884
 30
0
 10
403.5793457157502
 20
234.5808809715601
 30
0
 10
403.5793457157502
 20
235.614197539289
 30
0
 10
403.5435139589676
 20
235.7712356978417
 30
0
 10
403.5466218154233
 20
235.9327071222208
 30
0
 10
403.522307409035
 20
236.0916648391726
 30
0
 10
403.40841361069
 20
236.8387386865828
 30
0
 10
403.1303518654532
 20
237.5175768032831
 30
0
 10
402.6890362487522
 20
238.1282705968164
 30
0
 10
402.0221268163888
 20
239.051349667913
 30
0
 10
401.133645500247
 20
239.657838714477
 30
0
 10
400.0362065412348
 20
239.9589808642742
 30
0
 10
399.8086017596307
 20
240.0214579197869
 30
0
 10
399.5762437858
 20
240.059711976454
 30
0
 10
399.3416920309419
 20
240.0868143128981
 30
0
 10
399.3087853155294
 20
240.0906077259248
 30
0
 10
399.2764270453735
 20
240.1001598141488
 30
0
 10
399.2438859601321
 20
240.1070610836311
 30
0
 10
398.0157342148975
 20
240.1070610836311
 30
0
 10
396.7877652847483
 20
240.1070610836311
 30
0
 10
395.5596135395136
 20
240.1070610836311
 30
0
 10
395.5590650942566
 20
239.1898777990461
 30
0
 10
395.5581510188285
 20
238.272694514461
 30
0
 10
395.5577853886572
 20
237.3555112298758
 30
0
 10
395.5576025735716
 20
237.1886010566994
 30
0
 10
395.5581510188285
 20
237.1881440189853
 30
0
 10
395.7274377881182
 20
237.1881440189853
 30
0
 10
396.7607086520757
 20
237.1879612038996
 30
0
 10
397.7939795160333
 20
237.1877326850426
 30
0
 10
398.8272503799909
 20
237.1882354265281
 30
0
 10
398.9735024484916
 20
237.1883268340709
 30
0
 10
399.1170122907078
 20
237.1770837063049
 30
0
 10
399.2612533932667
 20
237.1449996587775
 30
0
 10
400.0221297796417
 20
236.9757585932594
 30
0
 10
400.6316352751183
 20
236.2386481680159
 30
0
 10
400.6358400220877
 20
235.4611813126202
 30
0
 10
400.6407760293997
 20
234.5252594817585
 30
0
 10
400.6393135087147
 20
233.5893376508968
 30
0
 10
400.6360228371734
 20
232.6533244124921
 30
0
 10
400.6343775014028
 20
232.2017711509962
 30
0
 10
400.4590578342874
 20
231.8145687996405
 30
0
 10
400.156316052491
 20
231.4875126114559
 30
0
 10
399.7877608398692
 20
231.0893413549625
 30
0
 10
399.3221308167801
 20
230.9023215223673
 30
0
 10
398.7830091292693
 20
230.9008590016824
 30
0
 10
397.7647291023331
 20
230.8982081829407
 30
0
 10
396.7464490753967
 20
230.9002191488826
 30
0
 10
395.7281690484605
 20
230.900036333797
 30
0
 10
395.558333833914
 20
230.900036333797
 30
0
 10
395.5577853886572
 20
230.8997621111686
 30
0
 10
395.5577853886572
 20
230.7346800888484
 30
0
 10
395.5576025735716
 20
229.8736210355505
 30
0
 10
395.5576025735716
 20
229.0125619822524
 30
0
 10
395.5577853886572
 20
228.1515029289545
 30
0
 10
395.5577853886572
 20
227.9892545404614
 30
0
 10
395.5672917731098
 20
227.9775543749814
 30
0
 10
395.7289003088031
 20
227.9788340805807
 30
0
 10
396.8555896815154
 20
227.987609204691
 30
0
 10
397.9824618693136
 20
227.9544282666498
 30
0
 10
399.1086027967689
 20
227.9976640344002
 30
0
 10
399.6175599951515
 20
228.0172252485623
 30
0
 10
400.1095153905708
 20
228.13121045445
 30
0
 10
400.5809954963999
 20
228.3217037736721
 30
0
 10
401.4009211554322
 20
228.6528733012836
 30
0
 10
402.0826386097311
 20
229.1692345106339
 30
0
 10
402.6157273994161
 20
229.8764546693776
 30
0
 10
403.0906809918723
 20
230.5065268619872
 30
0
 10
403.3963478150387
 20
231.2104563491898
 30
0
 10
403.5155432508668
 20
231.992265062869
 30
0
 10
403.5420514382827
 20
232.1653909489566
 30
0
 10
403.5583219809033
 20
232.3401621708149
 30
0
 10
403.5793457157502
 20
232.5142021323308
 30
0
  0
SPLINE
  5
64
100
AcDbEntity
  8
0
  6
CONTINUOUS
 62
  255
370
   -3
100
AcDbSpline
210
0
220
0
230
0
 70
    8
 71
    3
 72
  101
 73
   97
 74
    0
 42
1e-07
 43
1e-07
 40
0
 40
0
 40
0
 40
0
 40
0.1102219501308589
 40
0.1102219501308589
 40
0.1102219501308589
 40
0.1401741824805976
 40
0.1401741824805976
 40
0.1401741824805976
 40
0.168597717484129
 40
0.168597717484129
 40
0.168597717484129
 40
0.197624015505363
 40
0.197624015505363
 40
0.197624015505363
 40
0.229614847041067
 40
0.229614847041067
 40
0.229614847041067
 40
0.2599651216072668
 40
0.2599651216072668
 40
0.2599651216072668
 40
0.2898553768419882
 40
0.2898553768419882
 40
0.2898553768419882
 40
0.3105625321884073
 40
0.3105625321884073
 40
0.3105625321884073
 40
0.3158023136838998
 40
0.3158023136838998
 40
0.3158023136838998
 40
0.3210423521180313
 40
0.3210423521180313
 40
0.3210423521180313
 40
0.3271577515461687
 40
0.3271577515461687
 40
0.3271577515461687
 40
0.4370862681700153
 40
0.4370862681700153
 40
0.4370862681700153
 40
0.4693695937762407
 40
0.4693695937762407
 40
0.4693695937762407
 40
0.4928405308691678
 40
0.4928405308691678
 40
0.4928405308691678
 40
0.5188347909870998
 40
0.5188347909870998
 40
0.5188347909870998
 40
0.5531614390825109
 40
0.5531614390825109
 40
0.5531614390825109
 40
0.5875028359234072
 40
0.5875028359234072
 40
0.5875028359234072
 40
0.6217032749427124
 40
0.6217032749427124
 40
0.6217032749427124
 40
0.6553597500470812
 40
0.6553597500470812
 40
0.6553597500470812
 40
0.6803490854248384
 40
0.6803490854248384
 40
0.6803490854248384
 40
0.6917613208099425
 40
0.6917613208099425
 40
0.6917613208099425
 40
0.7031642771410102
 40
0.7031642771410102
 40
0.7031642771410102
 40
0.7190108106515399
 40
0.7190108106515399
 40
0.7190108106515399
 40
0.7345252388529282
 40
0.7345252388529282
 40
0.7345252388529282
 40
0.7364367182412209
 40
0.7364367182412209
 40
0.7364367182412209
 40
0.7389139684665001
 40
0.7389139684665001
 40
0.7389139684665001
 40
0.7528067639809083
 40
0.7528067639809083
 40
0.7528067639809083
 40
0.769357321263583
 40
0.769357321263583
 40
0.769357321263583
 40
0.8191415580591002
 40
0.8191415580591002
 40
0.8191415580591002
 40
0.8707993028629609
 40
0.8707993028629609
 40
0.8707993028629609
 40
0.935776212132906
 40
0.935776212132906
 40
0.935776212132906
 40
1
 40
1
 40
1
 40
1
 10
379.6753185605173
 20
235.3257277714898
 30
0
 10
380.6506453285888
 20
235.3257277714898
 30
0
 10
381.6259720966603
 20
235.3257277714898
 30
0
 10
382.6012988636763
 20
235.3257267749559
 30
0
 10
382.6015795913456
 20
235.5907665199521
 30
0
 10
382.6499416028686
 20
235.8621721030379
 30
0
 10
382.753498266667
 20
236.1061437461006
 30
0
 10
382.8517696216681
 20
236.3376636026339
 30
0
 10
383.0025996881144
 20
236.5532085972893
 30
0
 10
383.1883745986613
 20
236.7227561888209
 30
0
 10
383.3780891404215
 20
236.8958992873121
 30
0
 10
383.6122821601726
 20
237.0281092708321
 30
0
 10
383.8572638866975
 20
237.1052720441059
 30
0
 10
384.1272662527192
 20
237.1903156579635
 30
0
 10
384.4241759080405
 20
237.2168095645284
 30
0
 10
384.7038121144607
 20
237.1727949536112
 30
0
 10
384.9691079894376
 20
237.1310375043004
 30
0
 10
385.2306356851883
 20
237.0229387233449
 30
0
 10
385.4491076698525
 20
236.8667478856827
 30
0
 10
385.6642682730624
 20
236.7129244336786
 30
0
 10
385.8485963178435
 20
236.5063544031654
 30
0
 10
385.9793113754686
 20
236.276421123125
 30
0
 10
386.069867209907
 20
236.1171296044772
 30
0
 10
386.139137084909
 20
235.9429394292853
 30
0
 10
386.1779276633602
 20
235.7638600109051
 30
0
 10
386.1877433117082
 20
235.7185453838135
 30
0
 10
386.1953052538969
 20
235.6727013666039
 30
0
 10
386.2009240977721
 20
235.6266775578258
 30
0
 10
386.2065432171737
 20
235.5806514922178
 30
0
 10
386.2102349994317
 20
235.5343655256501
 30
0
 10
386.2123989708064
 20
235.4880482454395
 30
0
 10
386.2149244387917
 20
235.4339935524306
 30
0
 10
386.2149475693718
 20
235.3798350140941
 30
0
 10
386.2146139247951
 20
235.3257277714898
 30
0
 10
387.1872473674398
 20
235.3257277714898
 30
0
 10
388.1598808100845
 20
235.3257277714898
 30
0
 10
389.1325143056249
 20
235.3257258455373
 30
0
 10
389.1246709157664
 20
235.6112568866876
 30
0
 10
389.1166637653096
 20
235.8984091793274
 30
0
 10
389.0716395361645
 20
236.1804771020247
 30
0
 10
389.038905583572
 20
236.385548864157
 30
0
 10
388.9894718023073
 20
236.5884687009031
 30
0
 10
388.9262428396755
 20
236.786276783551
 30
0
 10
388.8562162320828
 20
237.0053508977812
 30
0
 10
388.7691020102078
 20
237.219451563609
 30
0
 10
388.6689160456816
 20
237.4264780493747
 30
0
 10
388.536615748124
 20
237.6998663008991
 30
0
 10
388.3789820706098
 20
237.9626264087819
 30
0
 10
388.1977887963972
 20
238.2063752594162
 30
0
 10
388.0165176709048
 20
238.4502288388825
 30
0
 10
387.810017118629
 20
238.677112011105
 30
0
 10
387.5845686545844
 20
238.880819593722
 30
0
 10
387.3600455671202
 20
239.0836910374593
 30
0
 10
387.1157639593857
 20
239.2666627789451
 30
0
 10
386.8576423332173
 20
239.4245889186203
 30
0
 10
386.6036261762864
 20
239.5800032156504
 30
0
 10
386.3335767002993
 20
239.7117949880312
 30
0
 10
386.0547107209694
 20
239.8162534835006
 30
0
 10
385.8476576810621
 20
239.8938120622955
 30
0
 10
385.6352080118531
 20
239.9599164498176
 30
0
 10
385.4185814017495
 20
240.0041793719365
 30
0
 10
385.3196514451177
 20
240.0243935504417
 30
0
 10
385.2198215948806
 20
240.0400239206107
 30
0
 10
385.1200621497807
 20
240.0556380951064
 30
0
 10
385.0203838170352
 20
240.0712395740376
 30
0
 10
384.920634348745
 20
240.0868543370336
 30
0
 10
384.8217866701909
 20
240.1070610836311
 30
0
 10
384.6815785626513
 20
240.1070610836311
 30
0
 10
384.5413704551119
 20
240.1070610836311
 30
0
 10
384.4011623475723
 20
240.1070610836311
 30
0
 10
384.2638926654536
 20
240.1070610836311
 30
0
 10
384.1234654357366
 20
240.1360794149055
 30
0
 10
383.9893533801055
 20
240.106806182023
 30
0
 10
383.9728298945647
 20
240.1031995275877
 30
0
 10
383.9564528102121
 20
240.098950875296
 30
0
 10
383.9399751955863
 20
240.0951401343081
 30
0
 10
383.9186204403146
 20
240.0902014679386
 30
0
 10
383.8968763862072
 20
240.0869480900595
 30
0
 10
383.8751154984806
 20
240.084325159719
 30
0
 10
383.753077135011
 20
240.0696153679923
 30
0
 10
383.6313383888746
 20
240.0516509156541
 30
0
 10
383.5105350231894
 20
240.0289289665713
 30
0
 10
383.3666213650894
 20
240.0018601941651
 30
0
 10
383.2239730341843
 20
239.9671029382573
 30
0
 10
383.0835831616041
 20
239.9254550919241
 30
0
 10
382.6612890635351
 20
239.8001779662985
 30
0
 10
382.2510445300497
 20
239.6179523546211
 30
0
 10
381.8789664110807
 20
239.3821886236247
 30
0
 10
381.4928860419922
 20
239.1375525011539
 30
0
 10
381.1419410431495
 20
238.8302404862972
 30
0
 10
380.8409255397906
 20
238.4863007378663
 30
0
 10
380.4622977633583
 20
238.0536813520807
 30
0
 10
380.1504679558724
 20
237.5476049742655
 30
0
 10
379.9531160835415
 20
237.0076320448226
 30
0
 10
379.7580516379382
 20
236.4739177259339
 30
0
 10
379.6839536410669
 20
235.8938654516389
 30
0
 10
379.6753185217579
 20
235.3256871813398
 30
0
  0
ENDBLK
  5
50
330
4E
100
AcDbEntity
  8
0
100
AcDbBlockEnd
  0
BLOCK
  5
52
330
51
100
AcDbEntity
  8
0
100
AcDbBlockBegin
  2
ODROID-LOGO-0
 70
    0
 10
0
 20
0
  3
ODROID-LOGO-0
  1

  0
SPLINE
  5
65
100
AcDbEntity
  8
0
  6
CONTINUOUS
 62
  255
370
   -3
100
AcDbSpline
210
0
220
0
230
0
 70
   11
 71
    3
 72
  101
 73
   97
 74
    0
 42
1e-07
 43
1e-07
 40
0
 40
0
 40
0
 40
0
 40
0.0158446293361482
 40
0.0158446293361482
 40
0.0158446293361482
 40
0.0313571932700797
 40
0.0313571932700797
 40
0.0313571932700797
 40
0.0332684429683859
 40
0.0332684429683859
 40
0.0332684429683859
 40
0.0357453955186861
 40
0.0357453955186861
 40
0.0357453955186861
 40
0.0496365216265651
 40
0.0496365216265651
 40
0.0496365216265651
 40
0.06618509013683931
 40
0.06618509013683931
 40
0.06618509013683931
 40
0.1159633446856475
 40
0.1159633446856475
 40
0.1159633446856475
 40
0.1676148821155846
 40
0.1676148821155846
 40
0.1676148821155846
 40
0.2325839835345676
 40
0.2325839835345676
 40
0.2325839835345676
 40
0.2968000540483794
 40
0.2968000540483794
 40
0.2968000540483794
 40
0.4070275953134707
 40
0.4070275953134707
 40
0.4070275953134707
 40
0.4369813470243806
 40
0.4369813470243806
 40
0.4369813470243806
 40
0.4654063238441727
 40
0.4654063238441727
 40
0.4654063238441727
 40
0.4944340942575091
 40
0.4944340942575091
 40
0.4944340942575091
 40
0.5264265485646622
 40
0.5264265485646622
 40
0.5264265485646622
 40
0.556778362683186
 40
0.556778362683186
 40
0.556778362683186
 40
0.5866701341352205
 40
0.5866701341352205
 40
0.5866701341352205
 40
0.6073783398757272
 40
0.6073783398757272
 40
0.6073783398757272
 40
0.6126183871651156
 40
0.6126183871651156
 40
0.6126183871651156
 40
0.6178586914061783
 40
0.6178586914061783
 40
0.6178586914061783
 40
0.6239744010449325
 40
0.6239744010449325
 40
0.6239744010449325
 40
0.7339084939182612
 40
0.7339084939182612
 40
0.7339084939182612
 40
0.766193457133031
 40
0.766193457133031
 40
0.766193457133031
 40
0.7896655848160353
 40
0.7896655848160353
 40
0.7896655848160353
 40
0.8156611635224854
 40
0.8156611635224854
 40
0.8156611635224854
 40
0.8499895528763067
 40
0.8499895528763067
 40
0.8499895528763067
 40
0.8843326917237692
 40
0.8843326917237692
 40
0.8843326917237692
 40
0.9185348655993755
 40
0.9185348655993755
 40
0.9185348655993755
 40
0.9521930479668549
 40
0.9521930479668549
 40
0.9521930479668549
 40
0.9771836509571731
 40
0.9771836509571731
 40
0.9771836509571731
 40
0.9885964652409468
 40
0.9885964652409468
 40
0.9885964652409468
 40
1
 40
1
 40
1
 40
1
 10
353.3912266701909
 20
240.1070610836311
 30
0
 10
353.2510185626514
 20
240.1070610836311
 30
0
 10
353.110810455112
 20
240.1070610836311
 30
0
 10
352.9706023475724
 20
240.1070610836311
 30
0
 10
352.8333326654537
 20
240.1070610836311
 30
0
 10
352.6929054357366
 20
240.1360794149055
 30
0
 10
352.5587933801056
 20
240.106806182023
 30
0
 10
352.5422698945648
 20
240.1031995275877
 30
0
 10
352.5258928102121
 20
240.0989508752961
 30
0
 10
352.5094151955863
 20
240.0951401343081
 30
0
 10
352.4880604403146
 20
240.0902014679386
 30
0
 10
352.4663163862073
 20
240.0869480900595
 30
0
 10
352.4445554984806
 20
240.084325159719
 30
0
 10
352.322517135011
 20
240.0696153679923
 30
0
 10
352.2007783888745
 20
240.0516509156541
 30
0
 10
352.0799750231894
 20
240.0289289665713
 30
0
 10
351.9360613650894
 20
240.0018601941651
 30
0
 10
351.7934130341843
 20
239.9671029382573
 30
0
 10
351.653023161604
 20
239.9254550919241
 30
0
 10
351.2307290635351
 20
239.8001779662985
 30
0
 10
350.8204845300497
 20
239.6179523546211
 30
0
 10
350.4484064110807
 20
239.3821886236247
 30
0
 10
350.0623260419921
 20
239.1375525011539
 30
0
 10
349.7113810431493
 20
238.8302404862972
 30
0
 10
349.4103655397905
 20
238.4863007378663
 30
0
 10
349.0317377633583
 20
238.0536813520807
 30
0
 10
348.7199079558725
 20
237.5476049742655
 30
0
 10
348.5225560835415
 20
237.0076320448226
 30
0
 10
348.3274916379382
 20
236.4739177259339
 30
0
 10
348.253393641067
 20
235.8938654516389
 30
0
 10
348.2447585605173
 20
235.3257277714898
 30
0
 10
349.2200853285888
 20
235.3257277714898
 30
0
 10
350.1954120966603
 20
235.3257277714898
 30
0
 10
351.1707388636764
 20
235.3257267749559
 30
0
 10
351.1710195913457
 20
235.5907665199521
 30
0
 10
351.2193816028688
 20
235.8621721030379
 30
0
 10
351.3229382666669
 20
236.1061437461006
 30
0
 10
351.4212096216681
 20
236.3376636026339
 30
0
 10
351.5720396881143
 20
236.5532085972893
 30
0
 10
351.7578145986612
 20
236.7227561888209
 30
0
 10
351.9475291404215
 20
236.8958992873123
 30
0
 10
352.1817221601726
 20
237.0281092708321
 30
0
 10
352.4267038866975
 20
237.1052720441059
 30
0
 10
352.6967062527192
 20
237.1903156579635
 30
0
 10
352.9936159080406
 20
237.2168095645284
 30
0
 10
353.2732521144608
 20
237.1727949536112
 30
0
 10
353.5385479894377
 20
237.1310375043004
 30
0
 10
353.8000756851883
 20
237.0229387233449
 30
0
 10
354.0185476698525
 20
236.8667478856827
 30
0
 10
354.2337082730623
 20
236.7129244336786
 30
0
 10
354.4180363178434
 20
236.5063544031654
 30
0
 10
354.5487513754686
 20
236.276421123125
 30
0
 10
354.639307209907
 20
236.1171296044772
 30
0
 10
354.7085770849089
 20
235.9429394292853
 30
0
 10
354.7473676633601
 20
235.7638600109051
 30
0
 10
354.7571833117082
 20
235.7185453838135
 30
0
 10
354.764745253897
 20
235.6727013666039
 30
0
 10
354.7703640977721
 20
235.6266775578258
 30
0
 10
354.7759832171737
 20
235.5806514922178
 30
0
 10
354.7796749994318
 20
235.5343655256501
 30
0
 10
354.7818389708066
 20
235.4880482454395
 30
0
 10
354.784364438792
 20
235.4339935524306
 30
0
 10
354.7843875693719
 20
235.3798350140941
 30
0
 10
354.7840539247952
 20
235.3257277714898
 30
0
 10
355.7566873674398
 20
235.3257277714898
 30
0
 10
356.7293208100846
 20
235.3257277714898
 30
0
 10
357.7019543056248
 20
235.3257258455373
 30
0
 10
357.6941109157664
 20
235.6112568866876
 30
0
 10
357.6861037653097
 20
235.8984091793274
 30
0
 10
357.6410795361645
 20
236.1804771020247
 30
0
 10
357.608345583572
 20
236.385548864157
 30
0
 10
357.5589118023073
 20
236.5884687009031
 30
0
 10
357.4956828396755
 20
236.786276783551
 30
0
 10
357.4256562320828
 20
237.0053508977812
 30
0
 10
357.3385420102078
 20
237.219451563609
 30
0
 10
357.2383560456815
 20
237.4264780493747
 30
0
 10
357.106055748124
 20
237.6998663008991
 30
0
 10
356.9484220706098
 20
237.9626264087819
 30
0
 10
356.7672287963973
 20
238.2063752594162
 30
0
 10
356.5859576709049
 20
238.4502288388825
 30
0
 10
356.3794571186291
 20
238.677112011105
 30
0
 10
356.1540086545843
 20
238.880819593722
 30
0
 10
355.9294855671201
 20
239.0836910374592
 30
0
 10
355.6852039593857
 20
239.2666627789451
 30
0
 10
355.4270823332173
 20
239.4245889186203
 30
0
 10
355.1730661762863
 20
239.5800032156504
 30
0
 10
354.9030167002992
 20
239.7117949880312
 30
0
 10
354.6241507209693
 20
239.8162534835006
 30
0
 10
354.4170976810621
 20
239.8938120622955
 30
0
 10
354.2046480118532
 20
239.9599164498176
 30
0
 10
353.9880214017495
 20
240.0041793719365
 30
0
 10
353.8890914451176
 20
240.0243935504417
 30
0
 10
353.7892615948804
 20
240.0400239206107
 30
0
 10
353.6895021497805
 20
240.0556380951064
 30
0
 10
353.5898238170351
 20
240.0712395740376
 30
0
 10
353.4900743487449
 20
240.0868543370336
 30
0
 10
353.3912266701899
 20
240.1070610836305
 30
0
  0
SPLINE
  5
66
100
AcDbEntity
  8
0
  6
CONTINUOUS
 62
  255
370
   -3
100
AcDbSpline
210
0
220
0
230
0
 70
   11
 71
    3
 72
   71
 73
   67
 74
    0
 42
1e-07
 43
1e-07
 40
0
 40
0
 40
0
 40
0
 40
0.0249154988546502
 40
0.0249154988546502
 40
0.0249154988546502
 40
0.0514473952430896
 40
0.0514473952430896
 40
0.0514473952430896
 40
0.0780910618303329
 40
0.0780910618303329
 40
0.0780910618303329
 40
0.1096543678726288
 40
0.1096543678726288
 40
0.1096543678726288
 40
0.1435790727707335
 40
0.1435790727707335
 40
0.1435790727707335
 40
0.1773849875610086
 40
0.1773849875610086
 40
0.1773849875610086
 40
0.2039601921860667
 40
0.2039601921860667
 40
0.2039601921860667
 40
0.2082277052556973
 40
0.2082277052556973
 40
0.2082277052556973
 40
0.2125079984710584
 40
0.2125079984710584
 40
0.2125079984710584
 40
0.2169518774077575
 40
0.2169518774077575
 40
0.2169518774077575
 40
0.3274360841398333
 40
0.3274360841398333
 40
0.3274360841398333
 40
0.3477148672147899
 40
0.3477148672147899
 40
0.3477148672147899
 40
0.3923646513947699
 40
0.3923646513947699
 40
0.3923646513947699
 40
0.4572125512842822
 40
0.4572125512842822
 40
0.4572125512842822
 40
0.5273297352786263
 40
0.5273297352786263
 40
0.5273297352786263
 40
0.5871527179903194
 40
0.5871527179903194
 40
0.5871527179903194
 40
0.6366726528123275
 40
0.6366726528123275
 40
0.6366726528123275
 40
0.7076183570218345
 40
0.7076183570218345
 40
0.7076183570218345
 40
0.7858802239217433
 40
0.7858802239217433
 40
0.7858802239217433
 40
0.8524760013412738
 40
0.8524760013412738
 40
0.8524760013412738
 40
0.8896182083854686
 40
0.8896182083854686
 40
0.8896182083854686
 40
1
 40
1
 40
1
 40
1
 10
354.7829340236956
 20
232.7750884248773
 30
0
 10
354.7821457121493
 20
232.5550569309609
 30
0
 10
354.7553888228961
 20
232.3302846118931
 30
0
 10
354.6825008169664
 20
232.1226748376968
 30
0
 10
354.6048841883543
 20
231.9015963415233
 30
0
 10
354.4813542082389
 20
231.6923193046055
 30
0
 10
354.3261891531116
 20
231.5167520862109
 30
0
 10
354.1703704383738
 20
231.3404452605673
 30
0
 10
353.9766839385565
 20
231.1916129359014
 30
0
 10
353.7654207069257
 20
231.0880203898761
 30
0
 10
353.5151486201763
 20
230.965299921836
 30
0
 10
353.227593673475
 20
230.9018236093713
 30
0
 10
352.9489111151659
 20
230.9075211857179
 30
0
 10
352.6493790085412
 20
230.9136450244545
 30
0
 10
352.3431530840527
 20
231.000369719436
 30
0
 10
352.0833146105787
 20
231.1495037262975
 30
0
 10
351.8243859826104
 20
231.2981155283291
 30
0
 10
351.5957289833655
 20
231.5174388802762
 30
0
 10
351.438808778263
 20
231.7714183111661
 30
0
 10
351.3154520643188
 20
231.9710743591781
 30
0
 10
351.2308113238742
 20
232.2000151263397
 30
0
 10
351.195137864688
 20
232.4319780990155
 30
0
 10
351.1894093310619
 20
232.4692272954574
 30
0
 10
351.1849576403864
 20
232.5066872260091
 30
0
 10
351.1815497966521
 20
232.5442199495203
 30
0
 10
351.178131747269
 20
232.5818650742514
 30
0
 10
351.1757606397646
 20
232.6196140747487
 30
0
 10
351.1742154399628
 20
232.6573824588177
 30
0
 10
351.1726111851824
 20
232.6965942880062
 30
0
 10
351.1719451554832
 20
232.7358478429688
 30
0
 10
351.1718368362148
 20
232.7750882002898
 30
0
 10
350.1962350410528
 20
232.7750882002898
 30
0
 10
349.2206332458908
 20
232.7750882002898
 30
0
 10
348.245031450666
 20
232.7750882132195
 30
0
 10
348.2458285914586
 20
232.596023514965
 30
0
 10
348.2475604075912
 20
232.4164052712873
 30
0
 10
348.2661149616994
 20
232.2383026881609
 30
0
 10
348.3069683419749
 20
231.8461567754059
 30
0
 10
348.3974803791308
 20
231.4561424064331
 30
0
 10
348.5337710474637
 20
231.0861798822556
 30
0
 10
348.7317151983313
 20
230.5488582989299
 30
0
 10
349.0358543363297
 20
230.0416053005319
 30
0
 10
349.4117083768861
 20
229.6095982277104
 30
0
 10
349.8181028316272
 20
229.1424879671853
 30
0
 10
350.3292136959158
 20
228.7521913012994
 30
0
 10
350.8837452543711
 20
228.4767948615817
 30
0
 10
351.3568636819057
 20
228.2418305416595
 30
0
 10
351.8782085346951
 20
228.0876067484082
 30
0
 10
352.4027387333396
 20
228.0250180208347
 30
0
 10
352.8369314143404
 20
227.9732086731635
 30
0
 10
353.2824229391687
 20
227.9777398095386
 30
0
 10
353.7143953634802
 20
228.04561703234
 30
0
 10
354.3332691150716
 20
228.1428626646038
 30
0
 10
354.944451490548
 20
228.3699425359929
 30
0
 10
355.4751180038205
 20
228.7028907077774
 30
0
 10
356.0605086556254
 20
229.0701736292044
 30
0
 10
356.5734228792321
 20
229.5806351302912
 30
0
 10
356.9495289701728
 20
230.1603964328545
 30
0
 10
357.269570882161
 20
230.6537357332233
 30
0
 10
357.4952831759807
 20
231.2193032690022
 30
0
 10
357.611003725759
 20
231.7958613710843
 30
0
 10
357.6755441033276
 20
232.117422905919
 30
0
 10
357.7069819432298
 20
232.4471136907273
 30
0
 10
357.7070263573826
 20
232.7750882002898
 30
0
 10
356.7323289125521
 20
232.7750882002898
 30
0
 10
355.7576314677215
 20
232.7750882002898
 30
0
 10
354.782934022891
 20
232.7750882002898
 30
0
  0
SPLINE
  5
67
100
AcDbEntity
  8
0
  6
CONTINUOUS
 62
  255
370
   -3
100
AcDbSpline
210
0
220
0
230
0
 70
   11
 71
    3
 72
   71
 73
   67
 74
    0
 42
1e-07
 43
1e-07
 40
0
 40
0
 40
0
 40
0
 40
0.0779663489067787
 40
0.0779663489067787
 40
0.0779663489067787
 40
0.1351361061592741
 40
0.1351361061592741
 40
0.1351361061592741
 40
0.1478049275695237
 40
0.1478049275695237
 40
0.1478049275695237
 40
0.2135600338563244
 40
0.2135600338563244
 40
0.2135600338563244
 40
0.2232398844386291
 40
0.2232398844386291
 40
0.2232398844386291
 40
0.2735204297111811
 40
0.2735204297111811
 40
0.2735204297111811
 40
0.3322840860586316
 40
0.3322840860586316
 40
0.3322840860586316
 40
0.3763218388699611
 40
0.3763218388699611
 40
0.3763218388699611
 40
0.3973752123017099
 40
0.3973752123017099
 40
0.3973752123017099
 40
0.4627163165117202
 40
0.4627163165117202
 40
0.4627163165117202
 40
0.4732155153465041
 40
0.4732155153465041
 40
0.4732155153465041
 40
0.529958173084521
 40
0.529958173084521
 40
0.529958173084521
 40
0.5413837991371989
 40
0.5413837991371989
 40
0.5413837991371989
 40
0.6078938643730186
 40
0.6078938643730186
 40
0.6078938643730186
 40
0.631438652171013
 40
0.631438652171013
 40
0.631438652171013
 40
0.6837348984879821
 40
0.6837348984879821
 40
0.6837348984879821
 40
0.7815523602746223
 40
0.7815523602746223
 40
0.7815523602746223
 40
0.843035544814289
 40
0.843035544814289
 40
0.843035544814289
 40
0.8677935919355555
 40
0.8677935919355555
 40
0.8677935919355555
 40
0.9331475606702099
 40
0.9331475606702099
 40
0.9331475606702099
 40
0.9835563959731392
 40
0.9835563959731392
 40
0.9835563959731392
 40
1
 40
1
 40
1
 40
1
 10
363.9747883072418
 20
240.1070610836311
 30
0
 10
362.739232551039
 20
240.1070610836311
 30
0
 10
361.5037224986079
 20
240.1070610836311
 30
0
 10
360.2681667424053
 20
240.1070610836311
 30
0
 10
360.2687151876622
 20
239.2010752230406
 30
0
 10
360.2692179291476
 20
238.2950436586786
 30
0
 10
360.269812078176
 20
237.3890120943167
 30
0
 10
360.2699034857188
 20
237.1882354265281
 30
0
 10
360.2699948932616
 20
237.1880983152139
 30
0
 10
360.4662011839095
 20
237.1880526114425
 30
0
 10
361.4845726183885
 20
237.1880069076711
 30
0
 10
362.5028983490963
 20
237.1878697963569
 30
0
 10
363.5212240798039
 20
237.1881440189853
 30
0
 10
363.6711324500171
 20
237.1881897227567
 30
0
 10
363.818527112803
 20
237.178317708133
 30
0
 10
363.9666987397027
 20
237.1459594379771
 30
0
 10
364.7363502501879
 20
236.9778609667441
 30
0
 10
365.3589270242869
 20
236.2278620779639
 30
0
 10
365.3635431051989
 20
235.4398376513735
 30
0
 10
365.3688904464533
 20
234.5188609537616
 30
0
 10
365.3799507591338
 20
233.5975643297499
 30
0
 10
365.359841099715
 20
232.6769075585378
 30
0
 10
365.3447588551508
 20
231.9869634253857
 30
0
 10
365.0041743506299
 20
231.4690482878075
 30
0
 10
364.4064147244043
 20
231.1259957796306
 30
0
 10
364.1206290417999
 20
230.9620106478241
 30
0
 10
363.8054101304094
 20
230.9009504092251
 30
0
 10
363.4784910535389
 20
230.9005847790539
 30
0
 10
362.4638673283151
 20
230.8993964809973
 30
0
 10
361.4492893068628
 20
230.9002191488826
 30
0
 10
360.4347112854105
 20
230.900036333797
 30
0
 10
360.2716859328037
 20
230.900036333797
 30
0
 10
360.2699491894902
 20
230.8986652206548
 30
0
 10
360.2699034857188
 20
230.7393418735318
 30
0
 10
360.2696749668617
 20
229.8782828202339
 30
0
 10
360.2696749668617
 20
229.017223766936
 30
0
 10
360.2698577819475
 20
228.156073306095
 30
0
 10
360.2699034857188
 20
227.982673197379
 30
0
 10
360.2740625289167
 20
227.9784684504096
 30
0
 10
360.4444918924915
 20
227.9783770428667
 30
0
 10
361.4365836584117
 20
227.9781942277812
 30
0
 10
362.428766831875
 20
227.9738980732689
 30
0
 10
363.4208128940239
 20
227.9806622314371
 30
0
 10
363.7720006735112
 20
227.9830388275503
 30
0
 10
364.1238283057982
 20
228.0047938227397
 30
0
 10
364.4694859289454
 20
228.0776456343615
 30
0
 10
365.2372635848027
 20
228.2393455775977
 30
0
 10
365.9323265403523
 20
228.556346936073
 30
0
 10
366.537215954917
 20
229.059728274344
 30
0
 10
367.6685214085415
 20
230.0014087804029
 30
0
 10
368.247085450776
 20
231.2166720621011
 30
0
 10
368.2829172075588
 20
232.6811123055073
 30
0
 10
368.3054491668622
 20
233.6015862616336
 30
0
 10
368.2916923316688
 20
234.523065700731
 30
0
 10
368.2847910621863
 20
235.4439966945715
 30
0
 10
368.2820031321306
 20
235.8148370957636
 30
0
 10
368.2328715778686
 20
236.1831637895284
 30
0
 10
368.1386304012286
 20
236.5429438780401
 30
0
 10
367.8897276621488
 20
237.4926225440952
 30
0
 10
367.4002859741569
 20
238.2945866209647
 30
0
 10
366.6599762849149
 20
238.9426660995084
 30
0
 10
366.0889076611909
 20
239.4424825436096
 30
0
 10
365.4361663979637
 20
239.7838897160159
 30
0
 10
364.7017524952332
 20
239.973011922096
 30
0
 10
364.4621733255204
 20
240.0346663097233
 30
0
 10
364.2163327391249
 20
240.058249455769
 30
0
 10
363.9747883072418
 20
240.1070610836311
 30
0
  0
SPLINE
  5
68
100
AcDbEntity
  8
0
  6
CONTINUOUS
 62
  255
370
   -3
100
AcDbSpline
210
0
220
0
230
0
 70
   11
 71
    3
 72
   89
 73
   85
 74
    0
 42
1e-07
 43
1e-07
 40
0
 40
0
 40
0
 40
0
 40
0.0792365922004859
 40
0.0792365922004859
 40
0.0792365922004859
 40
0.1305032249800642
 40
0.1305032249800642
 40
0.1305032249800642
 40
0.1418644888642732
 40
0.1418644888642732
 40
0.1418644888642732
 40
0.2118194159717775
 40
0.2118194159717775
 40
0.2118194159717775
 40
0.2256057506458701
 40
0.2256057506458701
 40
0.2256057506458701
 40
0.2595234464840558
 40
0.2595234464840558
 40
0.2595234464840558
 40
0.2865700715223597
 40
0.2865700715223597
 40
0.2865700715223597
 40
0.3027026935221367
 40
0.3027026935221367
 40
0.3027026935221367
 40
0.3740141955788207
 40
0.3740141955788207
 40
0.3740141955788207
 40
0.3841573586625491
 40
0.3841573586625491
 40
0.3841573586625491
 40
0.4362568410873484
 40
0.4362568410873484
 40
0.4362568410873484
 40
0.4471364719244966
 40
0.4471364719244966
 40
0.4471364719244966
 40
0.5184930001274254
 40
0.5184930001274254
 40
0.5184930001274254
 40
0.5399362324112346
 40
0.5399362324112346
 40
0.5399362324112346
 40
0.5636615376559566
 40
0.5636615376559566
 40
0.5636615376559566
 40
0.6001179186455018
 40
0.6001179186455018
 40
0.6001179186455018
 40
0.6088073703577489
 40
0.6088073703577489
 40
0.6088073703577489
 40
0.6636509126486707
 40
0.6636509126486707
 40
0.6636509126486707
 40
0.6706744813667771
 40
0.6706744813667771
 40
0.6706744813667771
 40
0.6963824148647423
 40
0.6963824148647423
 40
0.6963824148647423
 40
0.7228298955948674
 40
0.7228298955948674
 40
0.7228298955948674
 40
0.7815646910614941
 40
0.7815646910614941
 40
0.7815646910614941
 40
0.7880827441797852
 40
0.7880827441797852
 40
0.7880827441797852
 40
0.8433262073638906
 40
0.8433262073638906
 40
0.8433262073638906
 40
0.8885296219903166
 40
0.8885296219903166
 40
0.8885296219903166
 40
0.9476186442097189
 40
0.9476186442097189
 40
0.9476186442097189
 40
0.9857884898341596
 40
0.9857884898341596
 40
0.9857884898341596
 40
1
 40
1
 40
1
 40
1
 10
374.1735848965964
 20
240.1070610836311
 30
0
 10
372.7733127482448
 20
240.1070610836311
 30
0
 10
371.3730405998933
 20
240.1070610836311
 30
0
 10
369.9727684515418
 20
240.1070610836311
 30
0
 10
369.9724028213704
 20
239.2010752230406
 30
0
 10
369.9719914874278
 20
238.29508936245
 30
0
 10
369.9717629685707
 20
237.3891035018596
 30
0
 10
369.9716715610279
 20
237.1883268340709
 30
0
 10
369.9719000798851
 20
237.1880983152139
 30
0
 10
370.1682891856186
 20
237.1880983152139
 30
0
 10
371.3775195694911
 20
237.1879612038996
 30
0
 10
372.586795657135
 20
237.1863158681289
 30
0
 10
373.7959803372361
 20
237.1892409094991
 30
0
 10
374.0342798013496
 20
237.1898350585273
 30
0
 10
374.2463453006755
 20
237.1212794014176
 30
0
 10
374.4357417293839
 20
236.9831169004559
 30
0
 10
374.9016459751015
 20
236.6431265449631
 30
0
 10
375.0799820911295
 20
236.1676702110216
 30
0
 10
375.0395799572063
 20
235.6104041262624
 30
0
 10
375.0074045021361
 20
235.1660263568772
 30
0
 10
374.8196534091982
 20
234.7910726162586
 30
0
 10
374.4509153814909
 20
234.5203234744466
 30
0
 10
374.2309888334829
 20
234.3588063462961
 30
0
 10
373.9830915773742
 20
234.2929929154707
 30
0
 10
373.7137592524759
 20
234.2929929154707
 30
0
 10
372.5232217111085
 20
234.2932671380993
 30
0
 10
371.3327298735128
 20
234.2931757305565
 30
0
 10
370.1422380359169
 20
234.2929929154707
 30
0
 10
369.9729055628558
 20
234.2929929154707
 30
0
 10
369.9718086723422
 20
234.2920788400427
 30
0
 10
369.9718086723422
 20
234.1258999272088
 30
0
 10
369.9716258572566
 20
233.2723362924215
 30
0
 10
369.9716258572566
 20
232.4187726576342
 30
0
 10
369.9717629685707
 20
231.5652090228468
 30
0
 10
369.9718086723422
 20
231.3869643143616
 30
0
 10
369.9720828949707
 20
231.3866900917331
 30
0
 10
370.1530241259689
 20
231.3866900917331
 30
0
 10
371.3397682543093
 20
231.3865986841902
 30
0
 10
372.5265580864213
 20
231.3876041671612
 30
0
 10
373.7133022147619
 20
231.3860502389335
 30
0
 10
374.0699287430465
 20
231.3855932012195
 30
0
 10
374.37906905284
 20
231.2669462106482
 30
0
 10
374.6287944598049
 20
231.0038753024325
 30
0
 10
374.9050280541856
 20
230.7127422785732
 30
0
 10
375.0419565533194
 20
230.3643881329131
 30
0
 10
375.0457956701175
 20
229.9673137669336
 30
0
 10
375.0517371604004
 20
229.3571684186573
 30
0
 10
375.0472581908026
 20
228.7468402552952
 30
0
 10
375.0478066360594
 20
228.1366949070188
 30
0
 10
375.0478980436022
 20
227.9912655064033
 30
0
 10
375.0589583562825
 20
227.978742673038
 30
0
 10
375.1971665610158
 20
227.9786512654951
 30
0
 10
376.0694687420797
 20
227.9781028202383
 30
0
 10
376.9419080344579
 20
227.9798395635517
 30
0
 10
377.814118807979
 20
227.9765488920105
 30
0
 10
377.9258188252965
 20
227.9760918542964
 30
0
 10
377.9532410881404
 20
228.0198760673038
 30
0
 10
377.9521441976266
 20
228.1231665906825
 30
0
 10
377.9475738204861
 20
228.5012281877568
 30
0
 10
377.953972348483
 20
228.8793811923741
 30
0
 10
377.9492191562567
 20
229.2574427894482
 30
0
 10
377.9444659640304
 20
229.6463818841174
 30
0
 10
377.9711569665316
 20
230.0359608315861
 30
0
 10
377.928926681752
 20
230.4243514809984
 30
0
 10
377.8349597277403
 20
231.2868730549814
 30
0
 10
377.5196037050358
 20
232.0597238294649
 30
0
 10
376.9856008399225
 20
232.742355359192
 30
0
 10
376.9263687521797
 20
232.8181322121839
 30
0
 10
376.9230780806384
 20
232.8679493230169
 30
0
 10
376.9839555041518
 20
232.9443660288086
 30
0
 10
377.4998596757882
 20
233.5920798771811
 30
0
 10
377.8033327179272
 20
234.3297387476816
 30
0
 10
377.9124733240457
 20
235.1501214444278
 30
0
 10
378.0016870858312
 20
235.8214184388461
 30
0
 10
377.9464769299721
 20
236.4799183772705
 30
0
 10
377.7389818077868
 20
237.1232446635881
 30
0
 10
377.4680498508893
 20
237.9642854650101
 30
0
 10
376.9921821830049
 20
238.6691290276407
 30
0
 10
376.3009126404821
 20
239.2228759220015
 30
0
 10
375.8543867938409
 20
239.5805993408
 30
0
 10
375.3543875346541
 20
239.8347580135914
 30
0
 10
374.7995437497796
 20
239.9820612688345
 30
0
 10
374.5929627030221
 20
240.0369057945222
 30
0
 10
374.3801659433537
 20
240.0557814521131
 30
0
 10
374.1735848965964
 20
240.1070610836311
 30
0
  0
SPLINE
  5
69
100
AcDbEntity
  8
0
  6
CONTINUOUS
 62
  255
370
   -3
100
AcDbSpline
210
0
220
0
230
0
 70
   11
 71
    3
 72
   71
 73
   67
 74
    0
 42
1e-07
 43
1e-07
 40
0
 40
0
 40
0
 40
0
 40
0.0202780849681497
 40
0.0202780849681497
 40
0.0202780849681497
 40
0.0649263320579609
 40
0.0649263320579609
 40
0.0649263320579609
 40
0.1297719995275263
 40
0.1297719995275263
 40
0.1297719995275263
 40
0.1998867697043187
 40
0.1998867697043187
 40
0.1998867697043187
 40
0.2597076929812512
 40
0.2597076929812512
 40
0.2597076929812512
 40
0.3092259230558439
 40
0.3092259230558439
 40
0.3092259230558439
 40
0.3801691849255936
 40
0.3801691849255936
 40
0.3801691849255936
 40
0.4584283576233424
 40
0.4584283576233424
 40
0.4584283576233424
 40
0.5250218424514073
 40
0.5250218424514073
 40
0.5250218424514073
 40
0.5621627708573712
 40
0.5621627708573712
 40
0.5621627708573712
 40
0.6725407625259658
 40
0.6725407625259658
 40
0.6725407625259658
 40
0.6974580231805491
 40
0.6974580231805491
 40
0.6974580231805491
 40
0.7239917956660119
 40
0.7239917956660119
 40
0.7239917956660119
 40
0.7506373462536526
 40
0.7506373462536526
 40
0.7506373462536526
 40
0.7822028841689724
 40
0.7822028841689724
 40
0.7822028841689724
 40
0.8161299879169829
 40
0.8161299879169829
 40
0.8161299879169829
 40
0.8499382931573993
 40
0.8499382931573993
 40
0.8499382931573993
 40
0.8765153769418361
 40
0.8765153769418361
 40
0.8765153769418361
 40
0.8807831917715915
 40
0.8807831917715915
 40
0.8807831917715915
 40
0.8850637876507811
 40
0.8850637876507811
 40
0.8850637876507811
 40
0.889507980818626
 40
0.889507980818626
 40
0.889507980818626
 40
1
 40
1
 40
1
 40
1
 10
379.6755914506661
 20
232.7750882132195
 30
0
 10
379.6763885914586
 20
232.596023514965
 30
0
 10
379.6781204075913
 20
232.4164052712873
 30
0
 10
379.6966749616995
 20
232.2383026881609
 30
0
 10
379.737528341975
 20
231.8461567754059
 30
0
 10
379.8280403791308
 20
231.4561424064331
 30
0
 10
379.9643310474637
 20
231.0861798822556
 30
0
 10
380.1622751983313
 20
230.5488582989299
 30
0
 10
380.4664143363297
 20
230.0416053005319
 30
0
 10
380.842268376886
 20
229.6095982277104
 30
0
 10
381.2486628316271
 20
229.1424879671853
 30
0
 10
381.7597736959158
 20
228.7521913012994
 30
0
 10
382.3143052543712
 20
228.4767948615818
 30
0
 10
382.7874236819059
 20
228.2418305416597
 30
0
 10
383.3087685346951
 20
228.0876067484083
 30
0
 10
383.8332987333396
 20
228.0250180208347
 30
0
 10
384.2674914143404
 20
227.9732086731635
 30
0
 10
384.7129829391687
 20
227.9777398095386
 30
0
 10
385.1449553634801
 20
228.04561703234
 30
0
 10
385.7638291150716
 20
228.1428626646038
 30
0
 10
386.375011490548
 20
228.3699425359931
 30
0
 10
386.9056780038204
 20
228.7028907077775
 30
0
 10
387.4910686556253
 20
229.0701736292044
 30
0
 10
388.0039828792322
 20
229.5806351302912
 30
0
 10
388.3800889701728
 20
230.1603964328545
 30
0
 10
388.700130882161
 20
230.6537357332233
 30
0
 10
388.9258431759808
 20
231.2193032690022
 30
0
 10
389.0415637257589
 20
231.7958613710843
 30
0
 10
389.1061041033275
 20
232.117422905919
 30
0
 10
389.1375419432298
 20
232.4471136907273
 30
0
 10
389.1375863573826
 20
232.7750882002898
 30
0
 10
388.1628889125521
 20
232.7750882002898
 30
0
 10
387.1881914677215
 20
232.7750882002898
 30
0
 10
386.2134940236957
 20
232.7750884248773
 30
0
 10
386.2127057121494
 20
232.5550569309609
 30
0
 10
386.1859488228961
 20
232.3302846118931
 30
0
 10
386.1130608169665
 20
232.1226748376968
 30
0
 10
386.0354441883543
 20
231.9015963415233
 30
0
 10
385.911914208239
 20
231.6923193046055
 30
0
 10
385.7567491531116
 20
231.5167520862109
 30
0
 10
385.6009304383737
 20
231.3404452605673
 30
0
 10
385.4072439385565
 20
231.1916129359014
 30
0
 10
385.1959807069256
 20
231.0880203898761
 30
0
 10
384.9457086201762
 20
230.965299921836
 30
0
 10
384.658153673475
 20
230.9018236093713
 30
0
 10
384.3794711151659
 20
230.9075211857179
 30
0
 10
384.0799390085413
 20
230.9136450244545
 30
0
 10
383.7737130840528
 20
231.000369719436
 30
0
 10
383.5138746105788
 20
231.1495037262975
 30
0
 10
383.2549459826105
 20
231.2981155283291
 30
0
 10
383.0262889833655
 20
231.5174388802762
 30
0
 10
382.8693687782629
 20
231.7714183111661
 30
0
 10
382.7460120643187
 20
231.9710743591781
 30
0
 10
382.6613713238742
 20
232.2000151263397
 30
0
 10
382.625697864688
 20
232.4319780990155
 30
0
 10
382.6199693310618
 20
232.4692272954573
 30
0
 10
382.6155176403864
 20
232.5066872260091
 30
0
 10
382.6121097966521
 20
232.5442199495203
 30
0
 10
382.6086917472691
 20
232.5818650742514
 30
0
 10
382.6063206397646
 20
232.6196140747487
 30
0
 10
382.6047754399628
 20
232.6573824588177
 30
0
 10
382.6031711851824
 20
232.6965942880062
 30
0
 10
382.6025051554831
 20
232.7358478429688
 30
0
 10
382.6023968362148
 20
232.7750882002898
 30
0
 10
381.6267950410528
 20
232.7750882002898
 30
0
 10
380.6511932458907
 20
232.7750882002898
 30
0
 10
379.6755914507287
 20
232.7750882002898
 30
0
  0
SPLINE
  5
6A
100
AcDbEntity
  8
0
  6
CONTINUOUS
 62
  255
370
   -3
100
AcDbSpline
210
0
220
0
230
0
 70
   11
 71
    3
 72
   35
 73
   31
 74
    0
 42
1e-07
 43
1e-07
 40
0
 40
0
 40
0
 40
0
 40
0.0960206016267463
 40
0.0960206016267463
 40
0.0960206016267463
 40
0.2673024222382769
 40
0.2673024222382769
 40
0.2673024222382769
 40
0.489164108842438
 40
0.489164108842438
 40
0.489164108842438
 40
0.505456386095638
 40
0.505456386095638
 40
0.505456386095638
 40
0.5460234391065609
 40
0.5460234391065609
 40
0.5460234391065609
 40
0.5917886001645701
 40
0.5917886001645701
 40
0.5917886001645701
 40
0.605147380827794
 40
0.605147380827794
 40
0.605147380827794
 40
0.6081029452017757
 40
0.6081029452017757
 40
0.6081029452017757
 40
0.9944503432626529
 40
0.9944503432626529
 40
0.9944503432626529
 40
1
 40
1
 40
1
 40
1
 10
393.8747897103852
 20
240.1070610836311
 30
0
 10
392.9012993794274
 20
240.1070610836311
 30
0
 10
391.9279918635551
 20
240.1070610836311
 30
0
 10
390.9545015325971
 20
240.1070610836311
 30
0
 10
390.9546843476828
 20
238.3705462890421
 30
0
 10
390.9548671627685
 20
236.6340314944533
 30
0
 10
390.9550499778541
 20
234.8975166998643
 30
0
 10
390.9552327929397
 20
232.6482055900946
 30
0
 10
390.9550499778541
 20
230.3990315916392
 30
0
 10
390.9552327929397
 20
228.149766185641
 30
0
 10
390.9552327929397
 20
227.984592755778
 30
0
 10
390.9612656907654
 20
227.9785598579523
 30
0
 10
391.1250680074862
 20
227.9784684504096
 30
0
 10
391.5329284635175
 20
227.9781028202383
 30
0
 10
391.940788919549
 20
227.978285635324
 30
0
 10
392.348832190666
 20
227.978285635324
 30
0
 10
392.8091605762718
 20
227.978285635324
 30
0
 10
393.2694889618779
 20
227.9778285976099
 30
0
 10
393.7298173474839
 20
227.9786512654951
 30
0
 10
393.8641864354188
 20
227.9789254881236
 30
0
 10
393.8757037858134
 20
227.9922709893743
 30
0
 10
393.877349121584
 20
228.1273713376518
 30
0
 10
393.8777147517554
 20
228.1572616041518
 30
0
 10
393.877349121584
 20
228.1872432781943
 30
0
 10
393.877349121584
 20
228.2171335446941
 30
0
 10
393.877349121584
 20
232.1243489622336
 30
0
 10
393.877349121584
 20
236.0315643797731
 30
0
 10
393.877349121584
 20
239.9387340935411
 30
0
 10
393.877349121584
 20
239.9948583248283
 30
0
 10
393.8757037858134
 20
240.0509825561155
 30
0
 10
393.8747897103852
 20
240.1070610836311
 30
0
  0
SPLINE
  5
6B
100
AcDbEntity
  8
0
  6
CONTINUOUS
 62
  255
370
   -3
100
AcDbSpline
210
0
220
0
230
0
 70
   11
 71
    3
 72
   77
 73
   73
 74
    0
 42
1e-07
 43
1e-07
 40
0
 40
0
 40
0
 40
0
 40
0.0673971957956756
 40
0.0673971957956756
 40
0.0673971957956756
 40
0.0779031237574369
 40
0.0779031237574369
 40
0.0779031237574369
 40
0.1272754278268955
 40
0.1272754278268955
 40
0.1272754278268955
 40
0.2018971443151316
 40
0.2018971443151316
 40
0.2018971443151316
 40
0.2173737817864943
 40
0.2173737817864943
 40
0.2173737817864943
 40
0.2195450277201742
 40
0.2195450277201742
 40
0.2195450277201742
 40
0.2997083256417573
 40
0.2997083256417573
 40
0.2997083256417573
 40
0.3595742585942774
 40
0.3595742585942774
 40
0.3595742585942774
 40
0.3704687423949364
 40
0.3704687423949364
 40
0.3704687423949364
 40
0.4369650959641209
 40
0.4369650959641209
 40
0.4369650959641209
 40
0.4463771778729373
 40
0.4463771778729373
 40
0.4463771778729373
 40
0.4960261625065432
 40
0.4960261625065432
 40
0.4960261625065432
 40
0.5557940290623156
 40
0.5557940290623156
 40
0.5557940290623156
 40
0.5846273685323976
 40
0.5846273685323976
 40
0.5846273685323976
 40
0.6197295800512705
 40
0.6197295800512705
 40
0.6197295800512705
 40
0.6860297703622256
 40
0.6860297703622256
 40
0.6860297703622256
 40
0.6970877372933341
 40
0.6970877372933341
 40
0.6970877372933341
 40
0.7547655063070495
 40
0.7547655063070495
 40
0.7547655063070495
 40
0.7656336631745562
 40
0.7656336631745562
 40
0.7656336631745562
 40
0.8414033264353987
 40
0.8414033264353987
 40
0.8414033264353987
 40
0.8756473320628081
 40
0.8756473320628081
 40
0.8756473320628081
 40
0.9351965353699038
 40
0.9351965353699038
 40
0.9351965353699038
 40
0.9882504476125604
 40
0.9882504476125604
 40
0.9882504476125604
 40
1
 40
1
 40
1
 40
1
 10
403.5793457157502
 20
232.5142021323308
 30
0
 10
403.5793457157502
 20
233.5474729962884
 30
0
 10
403.5793457157502
 20
234.5808809715601
 30
0
 10
403.5793457157502
 20
235.614197539289
 30
0
 10
403.5435139589676
 20
235.7712356978417
 30
0
 10
403.5466218154233
 20
235.9327071222208
 30
0
 10
403.522307409035
 20
236.0916648391726
 30
0
 10
403.40841361069
 20
236.8387386865828
 30
0
 10
403.1303518654532
 20
237.5175768032831
 30
0
 10
402.6890362487522
 20
238.1282705968164
 30
0
 10
402.0221268163888
 20
239.051349667913
 30
0
 10
401.133645500247
 20
239.657838714477
 30
0
 10
400.0362065412348
 20
239.9589808642742
 30
0
 10
399.8086017596307
 20
240.0214579197869
 30
0
 10
399.5762437858
 20
240.059711976454
 30
0
 10
399.3416920309419
 20
240.0868143128981
 30
0
 10
399.3087853155294
 20
240.0906077259248
 30
0
 10
399.2764270453735
 20
240.1001598141488
 30
0
 10
399.2438859601321
 20
240.1070610836311
 30
0
 10
398.0157342148975
 20
240.1070610836311
 30
0
 10
396.7877652847483
 20
240.1070610836311
 30
0
 10
395.5596135395136
 20
240.1070610836311
 30
0
 10
395.5590650942566
 20
239.1898777990461
 30
0
 10
395.5581510188285
 20
238.272694514461
 30
0
 10
395.5577853886572
 20
237.3555112298758
 30
0
 10
395.5576025735716
 20
237.1886010566994
 30
0
 10
395.5581510188285
 20
237.1881440189853
 30
0
 10
395.7274377881182
 20
237.1881440189853
 30
0
 10
396.7607086520757
 20
237.1879612038996
 30
0
 10
397.7939795160333
 20
237.1877326850426
 30
0
 10
398.8272503799909
 20
237.1882354265281
 30
0
 10
398.9735024484916
 20
237.1883268340709
 30
0
 10
399.1170122907078
 20
237.1770837063049
 30
0
 10
399.2612533932667
 20
237.1449996587775
 30
0
 10
400.0221297796417
 20
236.9757585932594
 30
0
 10
400.6316352751183
 20
236.2386481680159
 30
0
 10
400.6358400220877
 20
235.4611813126202
 30
0
 10
400.6407760293997
 20
234.5252594817585
 30
0
 10
400.6393135087147
 20
233.5893376508968
 30
0
 10
400.6360228371734
 20
232.6533244124921
 30
0
 10
400.6343775014028
 20
232.2017711509962
 30
0
 10
400.4590578342874
 20
231.8145687996405
 30
0
 10
400.156316052491
 20
231.4875126114559
 30
0
 10
399.7877608398692
 20
231.0893413549625
 30
0
 10
399.3221308167801
 20
230.9023215223673
 30
0
 10
398.7830091292693
 20
230.9008590016824
 30
0
 10
397.7647291023331
 20
230.8982081829407
 30
0
 10
396.7464490753967
 20
230.9002191488826
 30
0
 10
395.7281690484605
 20
230.900036333797
 30
0
 10
395.558333833914
 20
230.900036333797
 30
0
 10
395.5577853886572
 20
230.8997621111686
 30
0
 10
395.5577853886572
 20
230.7346800888484
 30
0
 10
395.5576025735716
 20
229.8736210355505
 30
0
 10
395.5576025735716
 20
229.0125619822524
 30
0
 10
395.5577853886572
 20
228.1515029289545
 30
0
 10
395.5577853886572
 20
227.9892545404614
 30
0
 10
395.5672917731098
 20
227.9775543749814
 30
0
 10
395.7289003088031
 20
227.9788340805807
 30
0
 10
396.8555896815154
 20
227.987609204691
 30
0
 10
397.9824618693136
 20
227.9544282666498
 30
0
 10
399.1086027967689
 20
227.9976640344002
 30
0
 10
399.6175599951515
 20
228.0172252485623
 30
0
 10
400.1095153905708
 20
228.13121045445
 30
0
 10
400.5809954963999
 20
228.3217037736721
 30
0
 10
401.4009211554322
 20
228.6528733012836
 30
0
 10
402.0826386097311
 20
229.1692345106339
 30
0
 10
402.6157273994161
 20
229.8764546693776
 30
0
 10
403.0906809918723
 20
230.5065268619872
 30
0
 10
403.3963478150387
 20
231.2104563491898
 30
0
 10
403.5155432508668
 20
231.992265062869
 30
0
 10
403.5420514382827
 20
232.1653909489566
 30
0
 10
403.5583219809033
 20
232.3401621708149
 30
0
 10
403.5793457157502
 20
232.5142021323308
 30
0
  0
SPLINE
  5
6C
100
AcDbEntity
  8
0
  6
CONTINUOUS
 62
  255
370
   -3
100
AcDbSpline
210
0
220
0
230
0
 70
    8
 71
    3
 72
  101
 73
   97
 74
    0
 42
1e-07
 43
1e-07
 40
0
 40
0
 40
0
 40
0
 40
0.1102219501308589
 40
0.1102219501308589
 40
0.1102219501308589
 40
0.1401741824805976
 40
0.1401741824805976
 40
0.1401741824805976
 40
0.168597717484129
 40
0.168597717484129
 40
0.168597717484129
 40
0.197624015505363
 40
0.197624015505363
 40
0.197624015505363
 40
0.229614847041067
 40
0.229614847041067
 40
0.229614847041067
 40
0.2599651216072668
 40
0.2599651216072668
 40
0.2599651216072668
 40
0.2898553768419882
 40
0.2898553768419882
 40
0.2898553768419882
 40
0.3105625321884073
 40
0.3105625321884073
 40
0.3105625321884073
 40
0.3158023136838998
 40
0.3158023136838998
 40
0.3158023136838998
 40
0.3210423521180313
 40
0.3210423521180313
 40
0.3210423521180313
 40
0.3271577515461687
 40
0.3271577515461687
 40
0.3271577515461687
 40
0.4370862681700153
 40
0.4370862681700153
 40
0.4370862681700153
 40
0.4693695937762407
 40
0.4693695937762407
 40
0.4693695937762407
 40
0.4928405308691678
 40
0.4928405308691678
 40
0.4928405308691678
 40
0.5188347909870998
 40
0.5188347909870998
 40
0.5188347909870998
 40
0.5531614390825109
 40
0.5531614390825109
 40
0.5531614390825109
 40
0.5875028359234072
 40
0.5875028359234072
 40
0.5875028359234072
 40
0.6217032749427124
 40
0.6217032749427124
 40
0.6217032749427124
 40
0.6553597500470812
 40
0.6553597500470812
 40
0.6553597500470812
 40
0.6803490854248384
 40
0.6803490854248384
 40
0.6803490854248384
 40
0.6917613208099425
 40
0.6917613208099425
 40
0.6917613208099425
 40
0.7031642771410102
 40
0.7031642771410102
 40
0.7031642771410102
 40
0.7190108106515399
 40
0.7190108106515399
 40
0.7190108106515399
 40
0.7345252388529282
 40
0.7345252388529282
 40
0.7345252388529282
 40
0.7364367182412209
 40
0.7364367182412209
 40
0.7364367182412209
 40
0.7389139684665001
 40
0.7389139684665001
 40
0.7389139684665001
 40
0.7528067639809083
 40
0.7528067639809083
 40
0.7528067639809083
 40
0.769357321263583
 40
0.769357321263583
 40
0.769357321263583
 40
0.8191415580591002
 40
0.8191415580591002
 40
0.8191415580591002
 40
0.8707993028629609
 40
0.8707993028629609
 40
0.8707993028629609
 40
0.935776212132906
 40
0.935776212132906
 40
0.935776212132906
 40
1
 40
1
 40
1
 40
1
 10
379.6753185605173
 20
235.3257277714898
 30
0
 10
380.6506453285888
 20
235.3257277714898
 30
0
 10
381.6259720966603
 20
235.3257277714898
 30
0
 10
382.6012988636763
 20
235.3257267749559
 30
0
 10
382.6015795913456
 20
235.5907665199521
 30
0
 10
382.6499416028686
 20
235.8621721030379
 30
0
 10
382.753498266667
 20
236.1061437461006
 30
0
 10
382.8517696216681
 20
236.3376636026339
 30
0
 10
383.0025996881144
 20
236.5532085972893
 30
0
 10
383.1883745986613
 20
236.7227561888209
 30
0
 10
383.3780891404215
 20
236.8958992873121
 30
0
 10
383.6122821601726
 20
237.0281092708321
 30
0
 10
383.8572638866975
 20
237.1052720441059
 30
0
 10
384.1272662527192
 20
237.1903156579635
 30
0
 10
384.4241759080405
 20
237.2168095645284
 30
0
 10
384.7038121144607
 20
237.1727949536112
 30
0
 10
384.9691079894376
 20
237.1310375043004
 30
0
 10
385.2306356851883
 20
237.0229387233449
 30
0
 10
385.4491076698525
 20
236.8667478856827
 30
0
 10
385.6642682730624
 20
236.7129244336786
 30
0
 10
385.8485963178435
 20
236.5063544031654
 30
0
 10
385.9793113754686
 20
236.276421123125
 30
0
 10
386.069867209907
 20
236.1171296044772
 30
0
 10
386.139137084909
 20
235.9429394292853
 30
0
 10
386.1779276633602
 20
235.7638600109051
 30
0
 10
386.1877433117082
 20
235.7185453838135
 30
0
 10
386.1953052538969
 20
235.6727013666039
 30
0
 10
386.2009240977721
 20
235.6266775578258
 30
0
 10
386.2065432171737
 20
235.5806514922178
 30
0
 10
386.2102349994317
 20
235.5343655256501
 30
0
 10
386.2123989708064
 20
235.4880482454395
 30
0
 10
386.2149244387917
 20
235.4339935524306
 30
0
 10
386.2149475693718
 20
235.3798350140941
 30
0
 10
386.2146139247951
 20
235.3257277714898
 30
0
 10
387.1872473674398
 20
235.3257277714898
 30
0
 10
388.1598808100845
 20
235.3257277714898
 30
0
 10
389.1325143056249
 20
235.3257258455373
 30
0
 10
389.1246709157664
 20
235.6112568866876
 30
0
 10
389.1166637653096
 20
235.8984091793274
 30
0
 10
389.0716395361645
 20
236.1804771020247
 30
0
 10
389.038905583572
 20
236.385548864157
 30
0
 10
388.9894718023073
 20
236.5884687009031
 30
0
 10
388.9262428396755
 20
236.786276783551
 30
0
 10
388.8562162320828
 20
237.0053508977812
 30
0
 10
388.7691020102078
 20
237.219451563609
 30
0
 10
388.6689160456816
 20
237.4264780493747
 30
0
 10
388.536615748124
 20
237.6998663008991
 30
0
 10
388.3789820706098
 20
237.9626264087819
 30
0
 10
388.1977887963972
 20
238.2063752594162
 30
0
 10
388.0165176709048
 20
238.4502288388825
 30
0
 10
387.810017118629
 20
238.677112011105
 30
0
 10
387.5845686545844
 20
238.880819593722
 30
0
 10
387.3600455671202
 20
239.0836910374593
 30
0
 10
387.1157639593857
 20
239.2666627789451
 30
0
 10
386.8576423332173
 20
239.4245889186203
 30
0
 10
386.6036261762864
 20
239.5800032156504
 30
0
 10
386.3335767002993
 20
239.7117949880312
 30
0
 10
386.0547107209694
 20
239.8162534835006
 30
0
 10
385.8476576810621
 20
239.8938120622955
 30
0
 10
385.6352080118531
 20
239.9599164498176
 30
0
 10
385.4185814017495
 20
240.0041793719365
 30
0
 10
385.3196514451177
 20
240.0243935504417
 30
0
 10
385.2198215948806
 20
240.0400239206107
 30
0
 10
385.1200621497807
 20
240.0556380951064
 30
0
 10
385.0203838170352
 20
240.0712395740376
 30
0
 10
384.920634348745
 20
240.0868543370336
 30
0
 10
384.8217866701909
 20
240.1070610836311
 30
0
 10
384.6815785626513
 20
240.1070610836311
 30
0
 10
384.5413704551119
 20
240.1070610836311
 30
0
 10
384.4011623475723
 20
240.1070610836311
 30
0
 10
384.2638926654536
 20
240.1070610836311
 30
0
 10
384.1234654357366
 20
240.1360794149055
 30
0
 10
383.9893533801055
 20
240.106806182023
 30
0
 10
383.9728298945647
 20
240.1031995275877
 30
0
 10
383.9564528102121
 20
240.098950875296
 30
0
 10
383.9399751955863
 20
240.0951401343081
 30
0
 10
383.9186204403146
 20
240.0902014679386
 30
0
 10
383.8968763862072
 20
240.0869480900595
 30
0
 10
383.8751154984806
 20
240.084325159719
 30
0
 10
383.753077135011
 20
240.0696153679923
 30
0
 10
383.6313383888746
 20
240.0516509156541
 30
0
 10
383.5105350231894
 20
240.0289289665713
 30
0
 10
383.3666213650894
 20
240.0018601941651
 30
0
 10
383.2239730341843
 20
239.9671029382573
 30
0
 10
383.0835831616041
 20
239.9254550919241
 30
0
 10
382.6612890635351
 20
239.8001779662985
 30
0
 10
382.2510445300497
 20
239.6179523546211
 30
0
 10
381.8789664110807
 20
239.3821886236247
 30
0
 10
381.4928860419922
 20
239.1375525011539
 30
0
 10
381.1419410431495
 20
238.8302404862972
 30
0
 10
380.8409255397906
 20
238.4863007378663
 30
0
 10
380.4622977633583
 20
238.0536813520807
 30
0
 10
380.1504679558724
 20
237.5476049742655
 30
0
 10
379.9531160835415
 20
237.0076320448226
 30
0
 10
379.7580516379382
 20
236.4739177259339
 30
0
 10
379.6839536410669
 20
235.8938654516389
 30
0
 10
379.6753185217579
 20
235.3256871813398
 30
0
  0
ENDBLK
  5
53
330
51
100
AcDbEntity
  8
0
100
AcDbBlockEnd
  0
BLOCK
  5
55
330
54
100
AcDbEntity
  8
0
100
AcDbBlockBegin
  2
ODROID-LOGO-1
 70
    0
 10
0
 20
0
  3
ODROID-LOGO-1
  1

  0
SPLINE
  5
6D
100
AcDbEntity
  8
0
  6
CONTINUOUS
 62
  255
370
   -3
100
AcDbSpline
210
0
220
0
230
0
 70
   11
 71
    3
 72
  101
 73
   97
 74
    0
 42
1e-07
 43
1e-07
 40
0
 40
0
 40
0
 40
0
 40
0.0158446293361482
 40
0.0158446293361482
 40
0.0158446293361482
 40
0.0313571932700797
 40
0.0313571932700797
 40
0.0313571932700797
 40
0.0332684429683859
 40
0.0332684429683859
 40
0.0332684429683859
 40
0.0357453955186861
 40
0.0357453955186861
 40
0.0357453955186861
 40
0.0496365216265651
 40
0.0496365216265651
 40
0.0496365216265651
 40
0.06618509013683931
 40
0.06618509013683931
 40
0.06618509013683931
 40
0.1159633446856475
 40
0.1159633446856475
 40
0.1159633446856475
 40
0.1676148821155846
 40
0.1676148821155846
 40
0.1676148821155846
 40
0.2325839835345676
 40
0.2325839835345676
 40
0.2325839835345676
 40
0.2968000540483794
 40
0.2968000540483794
 40
0.2968000540483794
 40
0.4070275953134707
 40
0.4070275953134707
 40
0.4070275953134707
 40
0.4369813470243806
 40
0.4369813470243806
 40
0.4369813470243806
 40
0.4654063238441727
 40
0.4654063238441727
 40
0.4654063238441727
 40
0.4944340942575091
 40
0.4944340942575091
 40
0.4944340942575091
 40
0.5264265485646622
 40
0.5264265485646622
 40
0.5264265485646622
 40
0.556778362683186
 40
0.556778362683186
 40
0.556778362683186
 40
0.5866701341352205
 40
0.5866701341352205
 40
0.5866701341352205
 40
0.6073783398757272
 40
0.6073783398757272
 40
0.6073783398757272
 40
0.6126183871651156
 40
0.6126183871651156
 40
0.6126183871651156
 40
0.6178586914061783
 40
0.6178586914061783
 40
0.6178586914061783
 40
0.6239744010449325
 40
0.6239744010449325
 40
0.6239744010449325
 40
0.7339084939182612
 40
0.7339084939182612
 40
0.7339084939182612
 40
0.766193457133031
 40
0.766193457133031
 40
0.766193457133031
 40
0.7896655848160353
 40
0.7896655848160353
 40
0.7896655848160353
 40
0.8156611635224854
 40
0.8156611635224854
 40
0.8156611635224854
 40
0.8499895528763067
 40
0.8499895528763067
 40
0.8499895528763067
 40
0.8843326917237692
 40
0.8843326917237692
 40
0.8843326917237692
 40
0.9185348655993755
 40
0.9185348655993755
 40
0.9185348655993755
 40
0.9521930479668549
 40
0.9521930479668549
 40
0.9521930479668549
 40
0.9771836509571731
 40
0.9771836509571731
 40
0.9771836509571731
 40
0.9885964652409468
 40
0.9885964652409468
 40
0.9885964652409468
 40
1
 40
1
 40
1
 40
1
 10
353.3912266701909
 20
240.1070610836311
 30
0
 10
353.2510185626514
 20
240.1070610836311
 30
0
 10
353.110810455112
 20
240.1070610836311
 30
0
 10
352.9706023475724
 20
240.1070610836311
 30
0
 10
352.8333326654537
 20
240.1070610836311
 30
0
 10
352.6929054357366
 20
240.1360794149055
 30
0
 10
352.5587933801056
 20
240.106806182023
 30
0
 10
352.5422698945648
 20
240.1031995275877
 30
0
 10
352.5258928102121
 20
240.0989508752961
 30
0
 10
352.5094151955863
 20
240.0951401343081
 30
0
 10
352.4880604403146
 20
240.0902014679386
 30
0
 10
352.4663163862073
 20
240.0869480900595
 30
0
 10
352.4445554984806
 20
240.084325159719
 30
0
 10
352.322517135011
 20
240.0696153679923
 30
0
 10
352.2007783888745
 20
240.0516509156541
 30
0
 10
352.0799750231894
 20
240.0289289665713
 30
0
 10
351.9360613650894
 20
240.0018601941651
 30
0
 10
351.7934130341843
 20
239.9671029382573
 30
0
 10
351.653023161604
 20
239.9254550919241
 30
0
 10
351.2307290635351
 20
239.8001779662985
 30
0
 10
350.8204845300497
 20
239.6179523546211
 30
0
 10
350.4484064110807
 20
239.3821886236247
 30
0
 10
350.0623260419921
 20
239.1375525011539
 30
0
 10
349.7113810431493
 20
238.8302404862972
 30
0
 10
349.4103655397905
 20
238.4863007378663
 30
0
 10
349.0317377633583
 20
238.0536813520807
 30
0
 10
348.7199079558725
 20
237.5476049742655
 30
0
 10
348.5225560835415
 20
237.0076320448226
 30
0
 10
348.3274916379382
 20
236.4739177259339
 30
0
 10
348.253393641067
 20
235.8938654516389
 30
0
 10
348.2447585605173
 20
235.3257277714898
 30
0
 10
349.2200853285888
 20
235.3257277714898
 30
0
 10
350.1954120966603
 20
235.3257277714898
 30
0
 10
351.1707388636764
 20
235.3257267749559
 30
0
 10
351.1710195913457
 20
235.5907665199521
 30
0
 10
351.2193816028688
 20
235.8621721030379
 30
0
 10
351.3229382666669
 20
236.1061437461006
 30
0
 10
351.4212096216681
 20
236.3376636026339
 30
0
 10
351.5720396881143
 20
236.5532085972893
 30
0
 10
351.7578145986612
 20
236.7227561888209
 30
0
 10
351.9475291404215
 20
236.8958992873123
 30
0
 10
352.1817221601726
 20
237.0281092708321
 30
0
 10
352.4267038866975
 20
237.1052720441059
 30
0
 10
352.6967062527192
 20
237.1903156579635
 30
0
 10
352.9936159080406
 20
237.2168095645284
 30
0
 10
353.2732521144608
 20
237.1727949536112
 30
0
 10
353.5385479894377
 20
237.1310375043004
 30
0
 10
353.8000756851883
 20
237.0229387233449
 30
0
 10
354.0185476698525
 20
236.8667478856827
 30
0
 10
354.2337082730623
 20
236.7129244336786
 30
0
 10
354.4180363178434
 20
236.5063544031654
 30
0
 10
354.5487513754686
 20
236.276421123125
 30
0
 10
354.639307209907
 20
236.1171296044772
 30
0
 10
354.7085770849089
 20
235.9429394292853
 30
0
 10
354.7473676633601
 20
235.7638600109051
 30
0
 10
354.7571833117082
 20
235.7185453838135
 30
0
 10
354.764745253897
 20
235.6727013666039
 30
0
 10
354.7703640977721
 20
235.6266775578258
 30
0
 10
354.7759832171737
 20
235.5806514922178
 30
0
 10
354.7796749994318
 20
235.5343655256501
 30
0
 10
354.7818389708066
 20
235.4880482454395
 30
0
 10
354.784364438792
 20
235.4339935524306
 30
0
 10
354.7843875693719
 20
235.3798350140941
 30
0
 10
354.7840539247952
 20
235.3257277714898
 30
0
 10
355.7566873674398
 20
235.3257277714898
 30
0
 10
356.7293208100846
 20
235.3257277714898
 30
0
 10
357.7019543056248
 20
235.3257258455373
 30
0
 10
357.6941109157664
 20
235.6112568866876
 30
0
 10
357.6861037653097
 20
235.8984091793274
 30
0
 10
357.6410795361645
 20
236.1804771020247
 30
0
 10
357.608345583572
 20
236.385548864157
 30
0
 10
357.5589118023073
 20
236.5884687009031
 30
0
 10
357.4956828396755
 20
236.786276783551
 30
0
 10
357.4256562320828
 20
237.0053508977812
 30
0
 10
357.3385420102078
 20
237.219451563609
 30
0
 10
357.2383560456815
 20
237.4264780493747
 30
0
 10
357.106055748124
 20
237.6998663008991
 30
0
 10
356.9484220706098
 20
237.9626264087819
 30
0
 10
356.7672287963973
 20
238.2063752594162
 30
0
 10
356.5859576709049
 20
238.4502288388825
 30
0
 10
356.3794571186291
 20
238.677112011105
 30
0
 10
356.1540086545843
 20
238.880819593722
 30
0
 10
355.9294855671201
 20
239.0836910374592
 30
0
 10
355.6852039593857
 20
239.2666627789451
 30
0
 10
355.4270823332173
 20
239.4245889186203
 30
0
 10
355.1730661762863
 20
239.5800032156504
 30
0
 10
354.9030167002992
 20
239.7117949880312
 30
0
 10
354.6241507209693
 20
239.8162534835006
 30
0
 10
354.4170976810621
 20
239.8938120622955
 30
0
 10
354.2046480118532
 20
239.9599164498176
 30
0
 10
353.9880214017495
 20
240.0041793719365
 30
0
 10
353.8890914451176
 20
240.0243935504417
 30
0
 10
353.7892615948804
 20
240.0400239206107
 30
0
 10
353.6895021497805
 20
240.0556380951064
 30
0
 10
353.5898238170351
 20
240.0712395740376
 30
0
 10
353.4900743487449
 20
240.0868543370336
 30
0
 10
353.3912266701899
 20
240.1070610836305
 30
0
  0
SPLINE
  5
6E
100
AcDbEntity
  8
0
  6
CONTINUOUS
 62
  255
370
   -3
100
AcDbSpline
210
0
220
0
230
0
 70
   11
 71
    3
 72
   71
 73
   67
 74
    0
 42
1e-07
 43
1e-07
 40
0
 40
0
 40
0
 40
0
 40
0.0249154988546502
 40
0.0249154988546502
 40
0.0249154988546502
 40
0.0514473952430896
 40
0.0514473952430896
 40
0.0514473952430896
 40
0.0780910618303329
 40
0.0780910618303329
 40
0.0780910618303329
 40
0.1096543678726288
 40
0.1096543678726288
 40
0.1096543678726288
 40
0.1435790727707335
 40
0.1435790727707335
 40
0.1435790727707335
 40
0.1773849875610086
 40
0.1773849875610086
 40
0.1773849875610086
 40
0.2039601921860667
 40
0.2039601921860667
 40
0.2039601921860667
 40
0.2082277052556973
 40
0.2082277052556973
 40
0.2082277052556973
 40
0.2125079984710584
 40
0.2125079984710584
 40
0.2125079984710584
 40
0.2169518774077575
 40
0.2169518774077575
 40
0.2169518774077575
 40
0.3274360841398333
 40
0.3274360841398333
 40
0.3274360841398333
 40
0.3477148672147899
 40
0.3477148672147899
 40
0.3477148672147899
 40
0.3923646513947699
 40
0.3923646513947699
 40
0.3923646513947699
 40
0.4572125512842822
 40
0.4572125512842822
 40
0.4572125512842822
 40
0.5273297352786263
 40
0.5273297352786263
 40
0.5273297352786263
 40
0.5871527179903194
 40
0.5871527179903194
 40
0.5871527179903194
 40
0.6366726528123275
 40
0.6366726528123275
 40
0.6366726528123275
 40
0.7076183570218345
 40
0.7076183570218345
 40
0.7076183570218345
 40
0.7858802239217433
 40
0.7858802239217433
 40
0.7858802239217433
 40
0.8524760013412738
 40
0.8524760013412738
 40
0.8524760013412738
 40
0.8896182083854686
 40
0.8896182083854686
 40
0.8896182083854686
 40
1
 40
1
 40
1
 40
1
 10
354.7829340236956
 20
232.7750884248773
 30
0
 10
354.7821457121493
 20
232.5550569309609
 30
0
 10
354.7553888228961
 20
232.3302846118931
 30
0
 10
354.6825008169664
 20
232.1226748376968
 30
0
 10
354.6048841883543
 20
231.9015963415233
 30
0
 10
354.4813542082389
 20
231.6923193046055
 30
0
 10
354.3261891531116
 20
231.5167520862109
 30
0
 10
354.1703704383738
 20
231.3404452605673
 30
0
 10
353.9766839385565
 20
231.1916129359014
 30
0
 10
353.7654207069257
 20
231.0880203898761
 30
0
 10
353.5151486201763
 20
230.965299921836
 30
0
 10
353.227593673475
 20
230.9018236093713
 30
0
 10
352.9489111151659
 20
230.9075211857179
 30
0
 10
352.6493790085412
 20
230.9136450244545
 30
0
 10
352.3431530840527
 20
231.000369719436
 30
0
 10
352.0833146105787
 20
231.1495037262975
 30
0
 10
351.8243859826104
 20
231.2981155283291
 30
0
 10
351.5957289833655
 20
231.5174388802762
 30
0
 10
351.438808778263
 20
231.7714183111661
 30
0
 10
351.3154520643188
 20
231.9710743591781
 30
0
 10
351.2308113238742
 20
232.2000151263397
 30
0
 10
351.195137864688
 20
232.4319780990155
 30
0
 10
351.1894093310619
 20
232.4692272954574
 30
0
 10
351.1849576403864
 20
232.5066872260091
 30
0
 10
351.1815497966521
 20
232.5442199495203
 30
0
 10
351.178131747269
 20
232.5818650742514
 30
0
 10
351.1757606397646
 20
232.6196140747487
 30
0
 10
351.1742154399628
 20
232.6573824588177
 30
0
 10
351.1726111851824
 20
232.6965942880062
 30
0
 10
351.1719451554832
 20
232.7358478429688
 30
0
 10
351.1718368362148
 20
232.7750882002898
 30
0
 10
350.1962350410528
 20
232.7750882002898
 30
0
 10
349.2206332458908
 20
232.7750882002898
 30
0
 10
348.245031450666
 20
232.7750882132195
 30
0
 10
348.2458285914586
 20
232.596023514965
 30
0
 10
348.2475604075912
 20
232.4164052712873
 30
0
 10
348.2661149616994
 20
232.2383026881609
 30
0
 10
348.3069683419749
 20
231.8461567754059
 30
0
 10
348.3974803791308
 20
231.4561424064331
 30
0
 10
348.5337710474637
 20
231.0861798822556
 30
0
 10
348.7317151983313
 20
230.5488582989299
 30
0
 10
349.0358543363297
 20
230.0416053005319
 30
0
 10
349.4117083768861
 20
229.6095982277104
 30
0
 10
349.8181028316272
 20
229.1424879671853
 30
0
 10
350.3292136959158
 20
228.7521913012994
 30
0
 10
350.8837452543711
 20
228.4767948615817
 30
0
 10
351.3568636819057
 20
228.2418305416595
 30
0
 10
351.8782085346951
 20
228.0876067484082
 30
0
 10
352.4027387333396
 20
228.0250180208347
 30
0
 10
352.8369314143404
 20
227.9732086731635
 30
0
 10
353.2824229391687
 20
227.9777398095386
 30
0
 10
353.7143953634802
 20
228.04561703234
 30
0
 10
354.3332691150716
 20
228.1428626646038
 30
0
 10
354.944451490548
 20
228.3699425359929
 30
0
 10
355.4751180038205
 20
228.7028907077774
 30
0
 10
356.0605086556254
 20
229.0701736292044
 30
0
 10
356.5734228792321
 20
229.5806351302912
 30
0
 10
356.9495289701728
 20
230.1603964328545
 30
0
 10
357.269570882161
 20
230.6537357332233
 30
0
 10
357.4952831759807
 20
231.2193032690022
 30
0
 10
357.611003725759
 20
231.7958613710843
 30
0
 10
357.6755441033276
 20
232.117422905919
 30
0
 10
357.7069819432298
 20
232.4471136907273
 30
0
 10
357.7070263573826
 20
232.7750882002898
 30
0
 10
356.7323289125521
 20
232.7750882002898
 30
0
 10
355.7576314677215
 20
232.7750882002898
 30
0
 10
354.782934022891
 20
232.7750882002898
 30
0
  0
SPLINE
  5
6F
100
AcDbEntity
  8
0
  6
CONTINUOUS
 62
  255
370
   -3
100
AcDbSpline
210
0
220
0
230
0
 70
   11
 71
    3
 72
   71
 73
   67
 74
    0
 42
1e-07
 43
1e-07
 40
0
 40
0
 40
0
 40
0
 40
0.0779663489067787
 40
0.0779663489067787
 40
0.0779663489067787
 40
0.1351361061592741
 40
0.1351361061592741
 40
0.1351361061592741
 40
0.1478049275695237
 40
0.1478049275695237
 40
0.1478049275695237
 40
0.2135600338563244
 40
0.2135600338563244
 40
0.2135600338563244
 40
0.2232398844386291
 40
0.2232398844386291
 40
0.2232398844386291
 40
0.2735204297111811
 40
0.2735204297111811
 40
0.2735204297111811
 40
0.3322840860586316
 40
0.3322840860586316
 40
0.3322840860586316
 40
0.3763218388699611
 40
0.3763218388699611
 40
0.3763218388699611
 40
0.3973752123017099
 40
0.3973752123017099
 40
0.3973752123017099
 40
0.4627163165117202
 40
0.4627163165117202
 40
0.4627163165117202
 40
0.4732155153465041
 40
0.4732155153465041
 40
0.4732155153465041
 40
0.529958173084521
 40
0.529958173084521
 40
0.529958173084521
 40
0.5413837991371989
 40
0.5413837991371989
 40
0.5413837991371989
 40
0.6078938643730186
 40
0.6078938643730186
 40
0.6078938643730186
 40
0.631438652171013
 40
0.631438652171013
 40
0.631438652171013
 40
0.6837348984879821
 40
0.6837348984879821
 40
0.6837348984879821
 40
0.7815523602746223
 40
0.7815523602746223
 40
0.7815523602746223
 40
0.843035544814289
 40
0.843035544814289
 40
0.843035544814289
 40
0.8677935919355555
 40
0.8677935919355555
 40
0.8677935919355555
 40
0.9331475606702099
 40
0.9331475606702099
 40
0.9331475606702099
 40
0.9835563959731392
 40
0.9835563959731392
 40
0.9835563959731392
 40
1
 40
1
 40
1
 40
1
 10
363.9747883072418
 20
240.1070610836311
 30
0
 10
362.739232551039
 20
240.1070610836311
 30
0
 10
361.5037224986079
 20
240.1070610836311
 30
0
 10
360.2681667424053
 20
240.1070610836311
 30
0
 10
360.2687151876622
 20
239.2010752230406
 30
0
 10
360.2692179291476
 20
238.2950436586786
 30
0
 10
360.269812078176
 20
237.3890120943167
 30
0
 10
360.2699034857188
 20
237.1882354265281
 30
0
 10
360.2699948932616
 20
237.1880983152139
 30
0
 10
360.4662011839095
 20
237.1880526114425
 30
0
 10
361.4845726183885
 20
237.1880069076711
 30
0
 10
362.5028983490963
 20
237.1878697963569
 30
0
 10
363.5212240798039
 20
237.1881440189853
 30
0
 10
363.6711324500171
 20
237.1881897227567
 30
0
 10
363.818527112803
 20
237.178317708133
 30
0
 10
363.9666987397027
 20
237.1459594379771
 30
0
 10
364.7363502501879
 20
236.9778609667441
 30
0
 10
365.3589270242869
 20
236.2278620779639
 30
0
 10
365.3635431051989
 20
235.4398376513735
 30
0
 10
365.3688904464533
 20
234.5188609537616
 30
0
 10
365.3799507591338
 20
233.5975643297499
 30
0
 10
365.359841099715
 20
232.6769075585378
 30
0
 10
365.3447588551508
 20
231.9869634253857
 30
0
 10
365.0041743506299
 20
231.4690482878075
 30
0
 10
364.4064147244043
 20
231.1259957796306
 30
0
 10
364.1206290417999
 20
230.9620106478241
 30
0
 10
363.8054101304094
 20
230.9009504092251
 30
0
 10
363.4784910535389
 20
230.9005847790539
 30
0
 10
362.4638673283151
 20
230.8993964809973
 30
0
 10
361.4492893068628
 20
230.9002191488826
 30
0
 10
360.4347112854105
 20
230.900036333797
 30
0
 10
360.2716859328037
 20
230.900036333797
 30
0
 10
360.2699491894902
 20
230.8986652206548
 30
0
 10
360.2699034857188
 20
230.7393418735318
 30
0
 10
360.2696749668617
 20
229.8782828202339
 30
0
 10
360.2696749668617
 20
229.017223766936
 30
0
 10
360.2698577819475
 20
228.156073306095
 30
0
 10
360.2699034857188
 20
227.982673197379
 30
0
 10
360.2740625289167
 20
227.9784684504096
 30
0
 10
360.4444918924915
 20
227.9783770428667
 30
0
 10
361.4365836584117
 20
227.9781942277812
 30
0
 10
362.428766831875
 20
227.9738980732689
 30
0
 10
363.4208128940239
 20
227.9806622314371
 30
0
 10
363.7720006735112
 20
227.9830388275503
 30
0
 10
364.1238283057982
 20
228.0047938227397
 30
0
 10
364.4694859289454
 20
228.0776456343615
 30
0
 10
365.2372635848027
 20
228.2393455775977
 30
0
 10
365.9323265403523
 20
228.556346936073
 30
0
 10
366.537215954917
 20
229.059728274344
 30
0
 10
367.6685214085415
 20
230.0014087804029
 30
0
 10
368.247085450776
 20
231.2166720621011
 30
0
 10
368.2829172075588
 20
232.6811123055073
 30
0
 10
368.3054491668622
 20
233.6015862616336
 30
0
 10
368.2916923316688
 20
234.523065700731
 30
0
 10
368.2847910621863
 20
235.4439966945715
 30
0
 10
368.2820031321306
 20
235.8148370957636
 30
0
 10
368.2328715778686
 20
236.1831637895284
 30
0
 10
368.1386304012286
 20
236.5429438780401
 30
0
 10
367.8897276621488
 20
237.4926225440952
 30
0
 10
367.4002859741569
 20
238.2945866209647
 30
0
 10
366.6599762849149
 20
238.9426660995084
 30
0
 10
366.0889076611909
 20
239.4424825436096
 30
0
 10
365.4361663979637
 20
239.7838897160159
 30
0
 10
364.7017524952332
 20
239.973011922096
 30
0
 10
364.4621733255204
 20
240.0346663097233
 30
0
 10
364.2163327391249
 20
240.058249455769
 30
0
 10
363.9747883072418
 20
240.1070610836311
 30
0
  0
SPLINE
  5
70
100
AcDbEntity
  8
0
  6
CONTINUOUS
 62
  255
370
   -3
100
AcDbSpline
210
0
220
0
230
0
 70
   11
 71
    3
 72
   89
 73
   85
 74
    0
 42
1e-07
 43
1e-07
 40
0
 40
0
 40
0
 40
0
 40
0.0792365922004859
 40
0.0792365922004859
 40
0.0792365922004859
 40
0.1305032249800642
 40
0.1305032249800642
 40
0.1305032249800642
 40
0.1418644888642732
 40
0.1418644888642732
 40
0.1418644888642732
 40
0.2118194159717775
 40
0.2118194159717775
 40
0.2118194159717775
 40
0.2256057506458701
 40
0.2256057506458701
 40
0.2256057506458701
 40
0.2595234464840558
 40
0.2595234464840558
 40
0.2595234464840558
 40
0.2865700715223597
 40
0.2865700715223597
 40
0.2865700715223597
 40
0.3027026935221367
 40
0.3027026935221367
 40
0.3027026935221367
 40
0.3740141955788207
 40
0.3740141955788207
 40
0.3740141955788207
 40
0.3841573586625491
 40
0.3841573586625491
 40
0.3841573586625491
 40
0.4362568410873484
 40
0.4362568410873484
 40
0.4362568410873484
 40
0.4471364719244966
 40
0.4471364719244966
 40
0.4471364719244966
 40
0.5184930001274254
 40
0.5184930001274254
 40
0.5184930001274254
 40
0.5399362324112346
 40
0.5399362324112346
 40
0.5399362324112346
 40
0.5636615376559566
 40
0.5636615376559566
 40
0.5636615376559566
 40
0.6001179186455018
 40
0.6001179186455018
 40
0.6001179186455018
 40
0.6088073703577489
 40
0.6088073703577489
 40
0.6088073703577489
 40
0.6636509126486707
 40
0.6636509126486707
 40
0.6636509126486707
 40
0.6706744813667771
 40
0.6706744813667771
 40
0.6706744813667771
 40
0.6963824148647423
 40
0.6963824148647423
 40
0.6963824148647423
 40
0.7228298955948674
 40
0.7228298955948674
 40
0.7228298955948674
 40
0.7815646910614941
 40
0.7815646910614941
 40
0.7815646910614941
 40
0.7880827441797852
 40
0.7880827441797852
 40
0.7880827441797852
 40
0.8433262073638906
 40
0.8433262073638906
 40
0.8433262073638906
 40
0.8885296219903166
 40
0.8885296219903166
 40
0.8885296219903166
 40
0.9476186442097189
 40
0.9476186442097189
 40
0.9476186442097189
 40
0.9857884898341596
 40
0.9857884898341596
 40
0.9857884898341596
 40
1
 40
1
 40
1
 40
1
 10
374.1735848965964
 20
240.1070610836311
 30
0
 10
372.7733127482448
 20
240.1070610836311
 30
0
 10
371.3730405998933
 20
240.1070610836311
 30
0
 10
369.9727684515418
 20
240.1070610836311
 30
0
 10
369.9724028213704
 20
239.2010752230406
 30
0
 10
369.9719914874278
 20
238.29508936245
 30
0
 10
369.9717629685707
 20
237.3891035018596
 30
0
 10
369.9716715610279
 20
237.1883268340709
 30
0
 10
369.9719000798851
 20
237.1880983152139
 30
0
 10
370.1682891856186
 20
237.1880983152139
 30
0
 10
371.3775195694911
 20
237.1879612038996
 30
0
 10
372.586795657135
 20
237.1863158681289
 30
0
 10
373.7959803372361
 20
237.1892409094991
 30
0
 10
374.0342798013496
 20
237.1898350585273
 30
0
 10
374.2463453006755
 20
237.1212794014176
 30
0
 10
374.4357417293839
 20
236.9831169004559
 30
0
 10
374.9016459751015
 20
236.6431265449631
 30
0
 10
375.0799820911295
 20
236.1676702110216
 30
0
 10
375.0395799572063
 20
235.6104041262624
 30
0
 10
375.0074045021361
 20
235.1660263568772
 30
0
 10
374.8196534091982
 20
234.7910726162586
 30
0
 10
374.4509153814909
 20
234.5203234744466
 30
0
 10
374.2309888334829
 20
234.3588063462961
 30
0
 10
373.9830915773742
 20
234.2929929154707
 30
0
 10
373.7137592524759
 20
234.2929929154707
 30
0
 10
372.5232217111085
 20
234.2932671380993
 30
0
 10
371.3327298735128
 20
234.2931757305565
 30
0
 10
370.1422380359169
 20
234.2929929154707
 30
0
 10
369.9729055628558
 20
234.2929929154707
 30
0
 10
369.9718086723422
 20
234.2920788400427
 30
0
 10
369.9718086723422
 20
234.1258999272088
 30
0
 10
369.9716258572566
 20
233.2723362924215
 30
0
 10
369.9716258572566
 20
232.4187726576342
 30
0
 10
369.9717629685707
 20
231.5652090228468
 30
0
 10
369.9718086723422
 20
231.3869643143616
 30
0
 10
369.9720828949707
 20
231.3866900917331
 30
0
 10
370.1530241259689
 20
231.3866900917331
 30
0
 10
371.3397682543093
 20
231.3865986841902
 30
0
 10
372.5265580864213
 20
231.3876041671612
 30
0
 10
373.7133022147619
 20
231.3860502389335
 30
0
 10
374.0699287430465
 20
231.3855932012195
 30
0
 10
374.37906905284
 20
231.2669462106482
 30
0
 10
374.6287944598049
 20
231.0038753024325
 30
0
 10
374.9050280541856
 20
230.7127422785732
 30
0
 10
375.0419565533194
 20
230.3643881329131
 30
0
 10
375.0457956701175
 20
229.9673137669336
 30
0
 10
375.0517371604004
 20
229.3571684186573
 30
0
 10
375.0472581908026
 20
228.7468402552952
 30
0
 10
375.0478066360594
 20
228.1366949070188
 30
0
 10
375.0478980436022
 20
227.9912655064033
 30
0
 10
375.0589583562825
 20
227.978742673038
 30
0
 10
375.1971665610158
 20
227.9786512654951
 30
0
 10
376.0694687420797
 20
227.9781028202383
 30
0
 10
376.9419080344579
 20
227.9798395635517
 30
0
 10
377.814118807979
 20
227.9765488920105
 30
0
 10
377.9258188252965
 20
227.9760918542964
 30
0
 10
377.9532410881404
 20
228.0198760673038
 30
0
 10
377.9521441976266
 20
228.1231665906825
 30
0
 10
377.9475738204861
 20
228.5012281877568
 30
0
 10
377.953972348483
 20
228.8793811923741
 30
0
 10
377.9492191562567
 20
229.2574427894482
 30
0
 10
377.9444659640304
 20
229.6463818841174
 30
0
 10
377.9711569665316
 20
230.0359608315861
 30
0
 10
377.928926681752
 20
230.4243514809984
 30
0
 10
377.8349597277403
 20
231.2868730549814
 30
0
 10
377.5196037050358
 20
232.0597238294649
 30
0
 10
376.9856008399225
 20
232.742355359192
 30
0
 10
376.9263687521797
 20
232.8181322121839
 30
0
 10
376.9230780806384
 20
232.8679493230169
 30
0
 10
376.9839555041518
 20
232.9443660288086
 30
0
 10
377.4998596757882
 20
233.5920798771811
 30
0
 10
377.8033327179272
 20
234.3297387476816
 30
0
 10
377.9124733240457
 20
235.1501214444278
 30
0
 10
378.0016870858312
 20
235.8214184388461
 30
0
 10
377.9464769299721
 20
236.4799183772705
 30
0
 10
377.7389818077868
 20
237.1232446635881
 30
0
 10
377.4680498508893
 20
237.9642854650101
 30
0
 10
376.9921821830049
 20
238.6691290276407
 30
0
 10
376.3009126404821
 20
239.2228759220015
 30
0
 10
375.8543867938409
 20
239.5805993408
 30
0
 10
375.3543875346541
 20
239.8347580135914
 30
0
 10
374.7995437497796
 20
239.9820612688345
 30
0
 10
374.5929627030221
 20
240.0369057945222
 30
0
 10
374.3801659433537
 20
240.0557814521131
 30
0
 10
374.1735848965964
 20
240.1070610836311
 30
0
  0
SPLINE
  5
71
100
AcDbEntity
  8
0
  6
CONTINUOUS
 62
  255
370
   -3
100
AcDbSpline
210
0
220
0
230
0
 70
   11
 71
    3
 72
   71
 73
   67
 74
    0
 42
1e-07
 43
1e-07
 40
0
 40
0
 40
0
 40
0
 40
0.0202780849681497
 40
0.0202780849681497
 40
0.0202780849681497
 40
0.0649263320579609
 40
0.0649263320579609
 40
0.0649263320579609
 40
0.1297719995275263
 40
0.1297719995275263
 40
0.1297719995275263
 40
0.1998867697043187
 40
0.1998867697043187
 40
0.1998867697043187
 40
0.2597076929812512
 40
0.2597076929812512
 40
0.2597076929812512
 40
0.3092259230558439
 40
0.3092259230558439
 40
0.3092259230558439
 40
0.3801691849255936
 40
0.3801691849255936
 40
0.3801691849255936
 40
0.4584283576233424
 40
0.4584283576233424
 40
0.4584283576233424
 40
0.5250218424514073
 40
0.5250218424514073
 40
0.5250218424514073
 40
0.5621627708573712
 40
0.5621627708573712
 40
0.5621627708573712
 40
0.6725407625259658
 40
0.6725407625259658
 40
0.6725407625259658
 40
0.6974580231805491
 40
0.6974580231805491
 40
0.6974580231805491
 40
0.7239917956660119
 40
0.7239917956660119
 40
0.7239917956660119
 40
0.7506373462536526
 40
0.7506373462536526
 40
0.7506373462536526
 40
0.7822028841689724
 40
0.7822028841689724
 40
0.7822028841689724
 40
0.8161299879169829
 40
0.8161299879169829
 40
0.8161299879169829
 40
0.8499382931573993
 40
0.8499382931573993
 40
0.8499382931573993
 40
0.8765153769418361
 40
0.8765153769418361
 40
0.8765153769418361
 40
0.8807831917715915
 40
0.8807831917715915
 40
0.8807831917715915
 40
0.8850637876507811
 40
0.8850637876507811
 40
0.8850637876507811
 40
0.889507980818626
 40
0.889507980818626
 40
0.889507980818626
 40
1
 40
1
 40
1
 40
1
 10
379.6755914506661
 20
232.7750882132195
 30
0
 10
379.6763885914586
 20
232.596023514965
 30
0
 10
379.6781204075913
 20
232.4164052712873
 30
0
 10
379.6966749616995
 20
232.2383026881609
 30
0
 10
379.737528341975
 20
231.8461567754059
 30
0
 10
379.8280403791308
 20
231.4561424064331
 30
0
 10
379.9643310474637
 20
231.0861798822556
 30
0
 10
380.1622751983313
 20
230.5488582989299
 30
0
 10
380.4664143363297
 20
230.0416053005319
 30
0
 10
380.842268376886
 20
229.6095982277104
 30
0
 10
381.2486628316271
 20
229.1424879671853
 30
0
 10
381.7597736959158
 20
228.7521913012994
 30
0
 10
382.3143052543712
 20
228.4767948615818
 30
0
 10
382.7874236819059
 20
228.2418305416597
 30
0
 10
383.3087685346951
 20
228.0876067484083
 30
0
 10
383.8332987333396
 20
228.0250180208347
 30
0
 10
384.2674914143404
 20
227.9732086731635
 30
0
 10
384.7129829391687
 20
227.9777398095386
 30
0
 10
385.1449553634801
 20
228.04561703234
 30
0
 10
385.7638291150716
 20
228.1428626646038
 30
0
 10
386.375011490548
 20
228.3699425359931
 30
0
 10
386.9056780038204
 20
228.7028907077775
 30
0
 10
387.4910686556253
 20
229.0701736292044
 30
0
 10
388.0039828792322
 20
229.5806351302912
 30
0
 10
388.3800889701728
 20
230.1603964328545
 30
0
 10
388.700130882161
 20
230.6537357332233
 30
0
 10
388.9258431759808
 20
231.2193032690022
 30
0
 10
389.0415637257589
 20
231.7958613710843
 30
0
 10
389.1061041033275
 20
232.117422905919
 30
0
 10
389.1375419432298
 20
232.4471136907273
 30
0
 10
389.1375863573826
 20
232.7750882002898
 30
0
 10
388.1628889125521
 20
232.7750882002898
 30
0
 10
387.1881914677215
 20
232.7750882002898
 30
0
 10
386.2134940236957
 20
232.7750884248773
 30
0
 10
386.2127057121494
 20
232.5550569309609
 30
0
 10
386.1859488228961
 20
232.3302846118931
 30
0
 10
386.1130608169665
 20
232.1226748376968
 30
0
 10
386.0354441883543
 20
231.9015963415233
 30
0
 10
385.911914208239
 20
231.6923193046055
 30
0
 10
385.7567491531116
 20
231.5167520862109
 30
0
 10
385.6009304383737
 20
231.3404452605673
 30
0
 10
385.4072439385565
 20
231.1916129359014
 30
0
 10
385.1959807069256
 20
231.0880203898761
 30
0
 10
384.9457086201762
 20
230.965299921836
 30
0
 10
384.658153673475
 20
230.9018236093713
 30
0
 10
384.3794711151659
 20
230.9075211857179
 30
0
 10
384.0799390085413
 20
230.9136450244545
 30
0
 10
383.7737130840528
 20
231.000369719436
 30
0
 10
383.5138746105788
 20
231.1495037262975
 30
0
 10
383.2549459826105
 20
231.2981155283291
 30
0
 10
383.0262889833655
 20
231.5174388802762
 30
0
 10
382.8693687782629
 20
231.7714183111661
 30
0
 10
382.7460120643187
 20
231.9710743591781
 30
0
 10
382.6613713238742
 20
232.2000151263397
 30
0
 10
382.625697864688
 20
232.4319780990155
 30
0
 10
382.6199693310618
 20
232.4692272954573
 30
0
 10
382.6155176403864
 20
232.5066872260091
 30
0
 10
382.6121097966521
 20
232.5442199495203
 30
0
 10
382.6086917472691
 20
232.5818650742514
 30
0
 10
382.6063206397646
 20
232.6196140747487
 30
0
 10
382.6047754399628
 20
232.6573824588177
 30
0
 10
382.6031711851824
 20
232.6965942880062
 30
0
 10
382.6025051554831
 20
232.7358478429688
 30
0
 10
382.6023968362148
 20
232.7750882002898
 30
0
 10
381.6267950410528
 20
232.7750882002898
 30
0
 10
380.6511932458907
 20
232.7750882002898
 30
0
 10
379.6755914507287
 20
232.7750882002898
 30
0
  0
SPLINE
  5
72
100
AcDbEntity
  8
0
  6
CONTINUOUS
 62
  255
370
   -3
100
AcDbSpline
210
0
220
0
230
0
 70
   11
 71
    3
 72
   35
 73
   31
 74
    0
 42
1e-07
 43
1e-07
 40
0
 40
0
 40
0
 40
0
 40
0.0960206016267463
 40
0.0960206016267463
 40
0.0960206016267463
 40
0.2673024222382769
 40
0.2673024222382769
 40
0.2673024222382769
 40
0.489164108842438
 40
0.489164108842438
 40
0.489164108842438
 40
0.505456386095638
 40
0.505456386095638
 40
0.505456386095638
 40
0.5460234391065609
 40
0.5460234391065609
 40
0.5460234391065609
 40
0.5917886001645701
 40
0.5917886001645701
 40
0.5917886001645701
 40
0.605147380827794
 40
0.605147380827794
 40
0.605147380827794
 40
0.6081029452017757
 40
0.6081029452017757
 40
0.6081029452017757
 40
0.9944503432626529
 40
0.9944503432626529
 40
0.9944503432626529
 40
1
 40
1
 40
1
 40
1
 10
393.8747897103852
 20
240.1070610836311
 30
0
 10
392.9012993794274
 20
240.1070610836311
 30
0
 10
391.9279918635551
 20
240.1070610836311
 30
0
 10
390.9545015325971
 20
240.1070610836311
 30
0
 10
390.9546843476828
 20
238.3705462890421
 30
0
 10
390.9548671627685
 20
236.6340314944533
 30
0
 10
390.9550499778541
 20
234.8975166998643
 30
0
 10
390.9552327929397
 20
232.6482055900946
 30
0
 10
390.9550499778541
 20
230.3990315916392
 30
0
 10
390.9552327929397
 20
228.149766185641
 30
0
 10
390.9552327929397
 20
227.984592755778
 30
0
 10
390.9612656907654
 20
227.9785598579523
 30
0
 10
391.1250680074862
 20
227.9784684504096
 30
0
 10
391.5329284635175
 20
227.9781028202383
 30
0
 10
391.940788919549
 20
227.978285635324
 30
0
 10
392.348832190666
 20
227.978285635324
 30
0
 10
392.8091605762718
 20
227.978285635324
 30
0
 10
393.2694889618779
 20
227.9778285976099
 30
0
 10
393.7298173474839
 20
227.9786512654951
 30
0
 10
393.8641864354188
 20
227.9789254881236
 30
0
 10
393.8757037858134
 20
227.9922709893743
 30
0
 10
393.877349121584
 20
228.1273713376518
 30
0
 10
393.8777147517554
 20
228.1572616041518
 30
0
 10
393.877349121584
 20
228.1872432781943
 30
0
 10
393.877349121584
 20
228.2171335446941
 30
0
 10
393.877349121584
 20
232.1243489622336
 30
0
 10
393.877349121584
 20
236.0315643797731
 30
0
 10
393.877349121584
 20
239.9387340935411
 30
0
 10
393.877349121584
 20
239.9948583248283
 30
0
 10
393.8757037858134
 20
240.0509825561155
 30
0
 10
393.8747897103852
 20
240.1070610836311
 30
0
  0
SPLINE
  5
73
100
AcDbEntity
  8
0
  6
CONTINUOUS
 62
  255
370
   -3
100
AcDbSpline
210
0
220
0
230
0
 70
   11
 71
    3
 72
   77
 73
   73
 74
    0
 42
1e-07
 43
1e-07
 40
0
 40
0
 40
0
 40
0
 40
0.0673971957956756
 40
0.0673971957956756
 40
0.0673971957956756
 40
0.0779031237574369
 40
0.0779031237574369
 40
0.0779031237574369
 40
0.1272754278268955
 40
0.1272754278268955
 40
0.1272754278268955
 40
0.2018971443151316
 40
0.2018971443151316
 40
0.2018971443151316
 40
0.2173737817864943
 40
0.2173737817864943
 40
0.2173737817864943
 40
0.2195450277201742
 40
0.2195450277201742
 40
0.2195450277201742
 40
0.2997083256417573
 40
0.2997083256417573
 40
0.2997083256417573
 40
0.3595742585942774
 40
0.3595742585942774
 40
0.3595742585942774
 40
0.3704687423949364
 40
0.3704687423949364
 40
0.3704687423949364
 40
0.4369650959641209
 40
0.4369650959641209
 40
0.4369650959641209
 40
0.4463771778729373
 40
0.4463771778729373
 40
0.4463771778729373
 40
0.4960261625065432
 40
0.4960261625065432
 40
0.4960261625065432
 40
0.5557940290623156
 40
0.5557940290623156
 40
0.5557940290623156
 40
0.5846273685323976
 40
0.5846273685323976
 40
0.5846273685323976
 40
0.6197295800512705
 40
0.6197295800512705
 40
0.6197295800512705
 40
0.6860297703622256
 40
0.6860297703622256
 40
0.6860297703622256
 40
0.6970877372933341
 40
0.6970877372933341
 40
0.6970877372933341
 40
0.7547655063070495
 40
0.7547655063070495
 40
0.7547655063070495
 40
0.7656336631745562
 40
0.7656336631745562
 40
0.7656336631745562
 40
0.8414033264353987
 40
0.8414033264353987
 40
0.8414033264353987
 40
0.8756473320628081
 40
0.8756473320628081
 40
0.8756473320628081
 40
0.9351965353699038
 40
0.9351965353699038
 40
0.9351965353699038
 40
0.9882504476125604
 40
0.9882504476125604
 40
0.9882504476125604
 40
1
 40
1
 40
1
 40
1
 10
403.5793457157502
 20
232.5142021323308
 30
0
 10
403.5793457157502
 20
233.5474729962884
 30
0
 10
403.5793457157502
 20
234.5808809715601
 30
0
 10
403.5793457157502
 20
235.614197539289
 30
0
 10
403.5435139589676
 20
235.7712356978417
 30
0
 10
403.5466218154233
 20
235.9327071222208
 30
0
 10
403.522307409035
 20
236.0916648391726
 30
0
 10
403.40841361069
 20
236.8387386865828
 30
0
 10
403.1303518654532
 20
237.5175768032831
 30
0
 10
402.6890362487522
 20
238.1282705968164
 30
0
 10
402.0221268163888
 20
239.051349667913
 30
0
 10
401.133645500247
 20
239.657838714477
 30
0
 10
400.0362065412348
 20
239.9589808642742
 30
0
 10
399.8086017596307
 20
240.0214579197869
 30
0
 10
399.5762437858
 20
240.059711976454
 30
0
 10
399.3416920309419
 20
240.0868143128981
 30
0
 10
399.3087853155294
 20
240.0906077259248
 30
0
 10
399.2764270453735
 20
240.1001598141488
 30
0
 10
399.2438859601321
 20
240.1070610836311
 30
0
 10
398.0157342148975
 20
240.1070610836311
 30
0
 10
396.7877652847483
 20
240.1070610836311
 30
0
 10
395.5596135395136
 20
240.1070610836311
 30
0
 10
395.5590650942566
 20
239.1898777990461
 30
0
 10
395.5581510188285
 20
238.272694514461
 30
0
 10
395.5577853886572
 20
237.3555112298758
 30
0
 10
395.5576025735716
 20
237.1886010566994
 30
0
 10
395.5581510188285
 20
237.1881440189853
 30
0
 10
395.7274377881182
 20
237.1881440189853
 30
0
 10
396.7607086520757
 20
237.1879612038996
 30
0
 10
397.7939795160333
 20
237.1877326850426
 30
0
 10
398.8272503799909
 20
237.1882354265281
 30
0
 10
398.9735024484916
 20
237.1883268340709
 30
0
 10
399.1170122907078
 20
237.1770837063049
 30
0
 10
399.2612533932667
 20
237.1449996587775
 30
0
 10
400.0221297796417
 20
236.9757585932594
 30
0
 10
400.6316352751183
 20
236.2386481680159
 30
0
 10
400.6358400220877
 20
235.4611813126202
 30
0
 10
400.6407760293997
 20
234.5252594817585
 30
0
 10
400.6393135087147
 20
233.5893376508968
 30
0
 10
400.6360228371734
 20
232.6533244124921
 30
0
 10
400.6343775014028
 20
232.2017711509962
 30
0
 10
400.4590578342874
 20
231.8145687996405
 30
0
 10
400.156316052491
 20
231.4875126114559
 30
0
 10
399.7877608398692
 20
231.0893413549625
 30
0
 10
399.3221308167801
 20
230.9023215223673
 30
0
 10
398.7830091292693
 20
230.9008590016824
 30
0
 10
397.7647291023331
 20
230.8982081829407
 30
0
 10
396.7464490753967
 20
230.9002191488826
 30
0
 10
395.7281690484605
 20
230.900036333797
 30
0
 10
395.558333833914
 20
230.900036333797
 30
0
 10
395.5577853886572
 20
230.8997621111686
 30
0
 10
395.5577853886572
 20
230.7346800888484
 30
0
 10
395.5576025735716
 20
229.8736210355505
 30
0
 10
395.5576025735716
 20
229.0125619822524
 30
0
 10
395.5577853886572
 20
228.1515029289545
 30
0
 10
395.5577853886572
 20
227.9892545404614
 30
0
 10
395.5672917731098
 20
227.9775543749814
 30
0
 10
395.7289003088031
 20
227.9788340805807
 30
0
 10
396.8555896815154
 20
227.987609204691
 30
0
 10
397.9824618693136
 20
227.9544282666498
 30
0
 10
399.1086027967689
 20
227.9976640344002
 30
0
 10
399.6175599951515
 20
228.0172252485623
 30
0
 10
400.1095153905708
 20
228.13121045445
 30
0
 10
400.5809954963999
 20
228.3217037736721
 30
0
 10
401.4009211554322
 20
228.6528733012836
 30
0
 10
402.0826386097311
 20
229.1692345106339
 30
0
 10
402.6157273994161
 20
229.8764546693776
 30
0
 10
403.0906809918723
 20
230.5065268619872
 30
0
 10
403.3963478150387
 20
231.2104563491898
 30
0
 10
403.5155432508668
 20
231.992265062869
 30
0
 10
403.5420514382827
 20
232.1653909489566
 30
0
 10
403.5583219809033
 20
232.3401621708149
 30
0
 10
403.5793457157502
 20
232.5142021323308
 30
0
  0
SPLINE
  5
74
100
AcDbEntity
  8
0
  6
CONTINUOUS
 62
  255
370
   -3
100
AcDbSpline
210
0
220
0
230
0
 70
    8
 71
    3
 72
  101
 73
   97
 74
    0
 42
1e-07
 43
1e-07
 40
0
 40
0
 40
0
 40
0
 40
0.1102219501308589
 40
0.1102219501308589
 40
0.1102219501308589
 40
0.1401741824805976
 40
0.1401741824805976
 40
0.1401741824805976
 40
0.168597717484129
 40
0.168597717484129
 40
0.168597717484129
 40
0.197624015505363
 40
0.197624015505363
 40
0.197624015505363
 40
0.229614847041067
 40
0.229614847041067
 40
0.229614847041067
 40
0.2599651216072668
 40
0.2599651216072668
 40
0.2599651216072668
 40
0.2898553768419882
 40
0.2898553768419882
 40
0.2898553768419882
 40
0.3105625321884073
 40
0.3105625321884073
 40
0.3105625321884073
 40
0.3158023136838998
 40
0.3158023136838998
 40
0.3158023136838998
 40
0.3210423521180313
 40
0.3210423521180313
 40
0.3210423521180313
 40
0.3271577515461687
 40
0.3271577515461687
 40
0.3271577515461687
 40
0.4370862681700153
 40
0.4370862681700153
 40
0.4370862681700153
 40
0.4693695937762407
 40
0.4693695937762407
 40
0.4693695937762407
 40
0.4928405308691678
 40
0.4928405308691678
 40
0.4928405308691678
 40
0.5188347909870998
 40
0.5188347909870998
 40
0.5188347909870998
 40
0.5531614390825109
 40
0.5531614390825109
 40
0.5531614390825109
 40
0.5875028359234072
 40
0.5875028359234072
 40
0.5875028359234072
 40
0.6217032749427124
 40
0.6217032749427124
 40
0.6217032749427124
 40
0.6553597500470812
 40
0.6553597500470812
 40
0.6553597500470812
 40
0.6803490854248384
 40
0.6803490854248384
 40
0.6803490854248384
 40
0.6917613208099425
 40
0.6917613208099425
 40
0.6917613208099425
 40
0.7031642771410102
 40
0.7031642771410102
 40
0.7031642771410102
 40
0.7190108106515399
 40
0.7190108106515399
 40
0.7190108106515399
 40
0.7345252388529282
 40
0.7345252388529282
 40
0.7345252388529282
 40
0.7364367182412209
 40
0.7364367182412209
 40
0.7364367182412209
 40
0.7389139684665001
 40
0.7389139684665001
 40
0.7389139684665001
 40
0.7528067639809083
 40
0.7528067639809083
 40
0.7528067639809083
 40
0.769357321263583
 40
0.769357321263583
 40
0.769357321263583
 40
0.8191415580591002
 40
0.8191415580591002
 40
0.8191415580591002
 40
0.8707993028629609
 40
0.8707993028629609
 40
0.8707993028629609
 40
0.935776212132906
 40
0.935776212132906
 40
0.935776212132906
 40
1
 40
1
 40
1
 40
1
 10
379.6753185605173
 20
235.3257277714898
 30
0
 10
380.6506453285888
 20
235.3257277714898
 30
0
 10
381.6259720966603
 20
235.3257277714898
 30
0
 10
382.6012988636763
 20
235.3257267749559
 30
0
 10
382.6015795913456
 20
235.5907665199521
 30
0
 10
382.6499416028686
 20
235.8621721030379
 30
0
 10
382.753498266667
 20
236.1061437461006
 30
0
 10
382.8517696216681
 20
236.3376636026339
 30
0
 10
383.0025996881144
 20
236.5532085972893
 30
0
 10
383.1883745986613
 20
236.7227561888209
 30
0
 10
383.3780891404215
 20
236.8958992873121
 30
0
 10
383.6122821601726
 20
237.0281092708321
 30
0
 10
383.8572638866975
 20
237.1052720441059
 30
0
 10
384.1272662527192
 20
237.1903156579635
 30
0
 10
384.4241759080405
 20
237.2168095645284
 30
0
 10
384.7038121144607
 20
237.1727949536112
 30
0
 10
384.9691079894376
 20
237.1310375043004
 30
0
 10
385.2306356851883
 20
237.0229387233449
 30
0
 10
385.4491076698525
 20
236.8667478856827
 30
0
 10
385.6642682730624
 20
236.7129244336786
 30
0
 10
385.8485963178435
 20
236.5063544031654
 30
0
 10
385.9793113754686
 20
236.276421123125
 30
0
 10
386.069867209907
 20
236.1171296044772
 30
0
 10
386.139137084909
 20
235.9429394292853
 30
0
 10
386.1779276633602
 20
235.7638600109051
 30
0
 10
386.1877433117082
 20
235.7185453838135
 30
0
 10
386.1953052538969
 20
235.6727013666039
 30
0
 10
386.2009240977721
 20
235.6266775578258
 30
0
 10
386.2065432171737
 20
235.5806514922178
 30
0
 10
386.2102349994317
 20
235.5343655256501
 30
0
 10
386.2123989708064
 20
235.4880482454395
 30
0
 10
386.2149244387917
 20
235.4339935524306
 30
0
 10
386.2149475693718
 20
235.3798350140941
 30
0
 10
386.2146139247951
 20
235.3257277714898
 30
0
 10
387.1872473674398
 20
235.3257277714898
 30
0
 10
388.1598808100845
 20
235.3257277714898
 30
0
 10
389.1325143056249
 20
235.3257258455373
 30
0
 10
389.1246709157664
 20
235.6112568866876
 30
0
 10
389.1166637653096
 20
235.8984091793274
 30
0
 10
389.0716395361645
 20
236.1804771020247
 30
0
 10
389.038905583572
 20
236.385548864157
 30
0
 10
388.9894718023073
 20
236.5884687009031
 30
0
 10
388.9262428396755
 20
236.786276783551
 30
0
 10
388.8562162320828
 20
237.0053508977812
 30
0
 10
388.7691020102078
 20
237.219451563609
 30
0
 10
388.6689160456816
 20
237.4264780493747
 30
0
 10
388.536615748124
 20
237.6998663008991
 30
0
 10
388.3789820706098
 20
237.9626264087819
 30
0
 10
388.1977887963972
 20
238.2063752594162
 30
0
 10
388.0165176709048
 20
238.4502288388825
 30
0
 10
387.810017118629
 20
238.677112011105
 30
0
 10
387.5845686545844
 20
238.880819593722
 30
0
 10
387.3600455671202
 20
239.0836910374593
 30
0
 10
387.1157639593857
 20
239.2666627789451
 30
0
 10
386.8576423332173
 20
239.4245889186203
 30
0
 10
386.6036261762864
 20
239.5800032156504
 30
0
 10
386.3335767002993
 20
239.7117949880312
 30
0
 10
386.0547107209694
 20
239.8162534835006
 30
0
 10
385.8476576810621
 20
239.8938120622955
 30
0
 10
385.6352080118531
 20
239.9599164498176
 30
0
 10
385.4185814017495
 20
240.0041793719365
 30
0
 10
385.3196514451177
 20
240.0243935504417
 30
0
 10
385.2198215948806
 20
240.0400239206107
 30
0
 10
385.1200621497807
 20
240.0556380951064
 30
0
 10
385.0203838170352
 20
240.0712395740376
 30
0
 10
384.920634348745
 20
240.0868543370336
 30
0
 10
384.8217866701909
 20
240.1070610836311
 30
0
 10
384.6815785626513
 20
240.1070610836311
 30
0
 10
384.5413704551119
 20
240.1070610836311
 30
0
 10
384.4011623475723
 20
240.1070610836311
 30
0
 10
384.2638926654536
 20
240.1070610836311
 30
0
 10
384.1234654357366
 20
240.1360794149055
 30
0
 10
383.9893533801055
 20
240.106806182023
 30
0
 10
383.9728298945647
 20
240.1031995275877
 30
0
 10
383.9564528102121
 20
240.098950875296
 30
0
 10
383.9399751955863
 20
240.0951401343081
 30
0
 10
383.9186204403146
 20
240.0902014679386
 30
0
 10
383.8968763862072
 20
240.0869480900595
 30
0
 10
383.8751154984806
 20
240.084325159719
 30
0
 10
383.753077135011
 20
240.0696153679923
 30
0
 10
383.6313383888746
 20
240.0516509156541
 30
0
 10
383.5105350231894
 20
240.0289289665713
 30
0
 10
383.3666213650894
 20
240.0018601941651
 30
0
 10
383.2239730341843
 20
239.9671029382573
 30
0
 10
383.0835831616041
 20
239.9254550919241
 30
0
 10
382.6612890635351
 20
239.8001779662985
 30
0
 10
382.2510445300497
 20
239.6179523546211
 30
0
 10
381.8789664110807
 20
239.3821886236247
 30
0
 10
381.4928860419922
 20
239.1375525011539
 30
0
 10
381.1419410431495
 20
238.8302404862972
 30
0
 10
380.8409255397906
 20
238.4863007378663
 30
0
 10
380.4622977633583
 20
238.0536813520807
 30
0
 10
380.1504679558724
 20
237.5476049742655
 30
0
 10
379.9531160835415
 20
237.0076320448226
 30
0
 10
379.7580516379382
 20
236.4739177259339
 30
0
 10
379.6839536410669
 20
235.8938654516389
 30
0
 10
379.6753185217579
 20
235.3256871813398
 30
0
  0
ENDBLK
  5
56
330
54
100
AcDbEntity
  8
0
100
AcDbBlockEnd
  0
BLOCK
  5
58
330
57
100
AcDbEntity
  8
0
100
AcDbBlockBegin
  2
ODROID-LOGO-2
 70
    0
 10
0
 20
0
  3
ODROID-LOGO-2
  1

  0
SPLINE
  5
75
100
AcDbEntity
  8
0
  6
CONTINUOUS
 62
  255
370
   -3
100
AcDbSpline
210
0
220
0
230
0
 70
   11
 71
    3
 72
  101
 73
   97
 74
    0
 42
1e-07
 43
1e-07
 40
0
 40
0
 40
0
 40
0
 40
0.0158446293361482
 40
0.0158446293361482
 40
0.0158446293361482
 40
0.0313571932700797
 40
0.0313571932700797
 40
0.0313571932700797
 40
0.0332684429683859
 40
0.0332684429683859
 40
0.0332684429683859
 40
0.0357453955186861
 40
0.0357453955186861
 40
0.0357453955186861
 40
0.0496365216265651
 40
0.0496365216265651
 40
0.0496365216265651
 40
0.06618509013683931
 40
0.06618509013683931
 40
0.06618509013683931
 40
0.1159633446856475
 40
0.1159633446856475
 40
0.1159633446856475
 40
0.1676148821155846
 40
0.1676148821155846
 40
0.1676148821155846
 40
0.2325839835345676
 40
0.2325839835345676
 40
0.2325839835345676
 40
0.2968000540483794
 40
0.2968000540483794
 40
0.2968000540483794
 40
0.4070275953134707
 40
0.4070275953134707
 40
0.4070275953134707
 40
0.4369813470243806
 40
0.4369813470243806
 40
0.4369813470243806
 40
0.4654063238441727
 40
0.4654063238441727
 40
0.4654063238441727
 40
0.4944340942575091
 40
0.4944340942575091
 40
0.4944340942575091
 40
0.5264265485646622
 40
0.5264265485646622
 40
0.5264265485646622
 40
0.556778362683186
 40
0.556778362683186
 40
0.556778362683186
 40
0.5866701341352205
 40
0.5866701341352205
 40
0.5866701341352205
 40
0.6073783398757272
 40
0.6073783398757272
 40
0.6073783398757272
 40
0.6126183871651156
 40
0.6126183871651156
 40
0.6126183871651156
 40
0.6178586914061783
 40
0.6178586914061783
 40
0.6178586914061783
 40
0.6239744010449325
 40
0.6239744010449325
 40
0.6239744010449325
 40
0.7339084939182612
 40
0.7339084939182612
 40
0.7339084939182612
 40
0.766193457133031
 40
0.766193457133031
 40
0.766193457133031
 40
0.7896655848160353
 40
0.7896655848160353
 40
0.7896655848160353
 40
0.8156611635224854
 40
0.8156611635224854
 40
0.8156611635224854
 40
0.8499895528763067
 40
0.8499895528763067
 40
0.8499895528763067
 40
0.8843326917237692
 40
0.8843326917237692
 40
0.8843326917237692
 40
0.9185348655993755
 40
0.9185348655993755
 40
0.9185348655993755
 40
0.9521930479668549
 40
0.9521930479668549
 40
0.9521930479668549
 40
0.9771836509571731
 40
0.9771836509571731
 40
0.9771836509571731
 40
0.9885964652409468
 40
0.9885964652409468
 40
0.9885964652409468
 40
1
 40
1
 40
1
 40
1
 10
353.3912266701909
 20
240.1070610836311
 30
0
 10
353.2510185626514
 20
240.1070610836311
 30
0
 10
353.110810455112
 20
240.1070610836311
 30
0
 10
352.9706023475724
 20
240.1070610836311
 30
0
 10
352.8333326654537
 20
240.1070610836311
 30
0
 10
352.6929054357366
 20
240.1360794149055
 30
0
 10
352.5587933801056
 20
240.106806182023
 30
0
 10
352.5422698945648
 20
240.1031995275877
 30
0
 10
352.5258928102121
 20
240.0989508752961
 30
0
 10
352.5094151955863
 20
240.0951401343081
 30
0
 10
352.4880604403146
 20
240.0902014679386
 30
0
 10
352.4663163862073
 20
240.0869480900595
 30
0
 10
352.4445554984806
 20
240.084325159719
 30
0
 10
352.322517135011
 20
240.0696153679923
 30
0
 10
352.2007783888745
 20
240.0516509156541
 30
0
 10
352.0799750231894
 20
240.0289289665713
 30
0
 10
351.9360613650894
 20
240.0018601941651
 30
0
 10
351.7934130341843
 20
239.9671029382573
 30
0
 10
351.653023161604
 20
239.9254550919241
 30
0
 10
351.2307290635351
 20
239.8001779662985
 30
0
 10
350.8204845300497
 20
239.6179523546211
 30
0
 10
350.4484064110807
 20
239.3821886236247
 30
0
 10
350.0623260419921
 20
239.1375525011539
 30
0
 10
349.7113810431493
 20
238.8302404862972
 30
0
 10
349.4103655397905
 20
238.4863007378663
 30
0
 10
349.0317377633583
 20
238.0536813520807
 30
0
 10
348.7199079558725
 20
237.5476049742655
 30
0
 10
348.5225560835415
 20
237.0076320448226
 30
0
 10
348.3274916379382
 20
236.4739177259339
 30
0
 10
348.253393641067
 20
235.8938654516389
 30
0
 10
348.2447585605173
 20
235.3257277714898
 30
0
 10
349.2200853285888
 20
235.3257277714898
 30
0
 10
350.1954120966603
 20
235.3257277714898
 30
0
 10
351.1707388636764
 20
235.3257267749559
 30
0
 10
351.1710195913457
 20
235.5907665199521
 30
0
 10
351.2193816028688
 20
235.8621721030379
 30
0
 10
351.3229382666669
 20
236.1061437461006
 30
0
 10
351.4212096216681
 20
236.3376636026339
 30
0
 10
351.5720396881143
 20
236.5532085972893
 30
0
 10
351.7578145986612
 20
236.7227561888209
 30
0
 10
351.9475291404215
 20
236.8958992873123
 30
0
 10
352.1817221601726
 20
237.0281092708321
 30
0
 10
352.4267038866975
 20
237.1052720441059
 30
0
 10
352.6967062527192
 20
237.1903156579635
 30
0
 10
352.9936159080406
 20
237.2168095645284
 30
0
 10
353.2732521144608
 20
237.1727949536112
 30
0
 10
353.5385479894377
 20
237.1310375043004
 30
0
 10
353.8000756851883
 20
237.0229387233449
 30
0
 10
354.0185476698525
 20
236.8667478856827
 30
0
 10
354.2337082730623
 20
236.7129244336786
 30
0
 10
354.4180363178434
 20
236.5063544031654
 30
0
 10
354.5487513754686
 20
236.276421123125
 30
0
 10
354.639307209907
 20
236.1171296044772
 30
0
 10
354.7085770849089
 20
235.9429394292853
 30
0
 10
354.7473676633601
 20
235.7638600109051
 30
0
 10
354.7571833117082
 20
235.7185453838135
 30
0
 10
354.764745253897
 20
235.6727013666039
 30
0
 10
354.7703640977721
 20
235.6266775578258
 30
0
 10
354.7759832171737
 20
235.5806514922178
 30
0
 10
354.7796749994318
 20
235.5343655256501
 30
0
 10
354.7818389708066
 20
235.4880482454395
 30
0
 10
354.784364438792
 20
235.4339935524306
 30
0
 10
354.7843875693719
 20
235.3798350140941
 30
0
 10
354.7840539247952
 20
235.3257277714898
 30
0
 10
355.7566873674398
 20
235.3257277714898
 30
0
 10
356.7293208100846
 20
235.3257277714898
 30
0
 10
357.7019543056248
 20
235.3257258455373
 30
0
 10
357.6941109157664
 20
235.6112568866876
 30
0
 10
357.6861037653097
 20
235.8984091793274
 30
0
 10
357.6410795361645
 20
236.1804771020247
 30
0
 10
357.608345583572
 20
236.385548864157
 30
0
 10
357.5589118023073
 20
236.5884687009031
 30
0
 10
357.4956828396755
 20
236.786276783551
 30
0
 10
357.4256562320828
 20
237.0053508977812
 30
0
 10
357.3385420102078
 20
237.219451563609
 30
0
 10
357.2383560456815
 20
237.4264780493747
 30
0
 10
357.106055748124
 20
237.6998663008991
 30
0
 10
356.9484220706098
 20
237.9626264087819
 30
0
 10
356.7672287963973
 20
238.2063752594162
 30
0
 10
356.5859576709049
 20
238.4502288388825
 30
0
 10
356.3794571186291
 20
238.677112011105
 30
0
 10
356.1540086545843
 20
238.880819593722
 30
0
 10
355.9294855671201
 20
239.0836910374592
 30
0
 10
355.6852039593857
 20
239.2666627789451
 30
0
 10
355.4270823332173
 20
239.4245889186203
 30
0
 10
355.1730661762863
 20
239.5800032156504
 30
0
 10
354.9030167002992
 20
239.7117949880312
 30
0
 10
354.6241507209693
 20
239.8162534835006
 30
0
 10
354.4170976810621
 20
239.8938120622955
 30
0
 10
354.2046480118532
 20
239.9599164498176
 30
0
 10
353.9880214017495
 20
240.0041793719365
 30
0
 10
353.8890914451176
 20
240.0243935504417
 30
0
 10
353.7892615948804
 20
240.0400239206107
 30
0
 10
353.6895021497805
 20
240.0556380951064
 30
0
 10
353.5898238170351
 20
240.0712395740376
 30
0
 10
353.4900743487449
 20
240.0868543370336
 30
0
 10
353.3912266701899
 20
240.1070610836305
 30
0
  0
SPLINE
  5
76
100
AcDbEntity
  8
0
  6
CONTINUOUS
 62
  255
370
   -3
100
AcDbSpline
210
0
220
0
230
0
 70
   11
 71
    3
 72
   71
 73
   67
 74
    0
 42
1e-07
 43
1e-07
 40
0
 40
0
 40
0
 40
0
 40
0.0249154988546502
 40
0.0249154988546502
 40
0.0249154988546502
 40
0.0514473952430896
 40
0.0514473952430896
 40
0.0514473952430896
 40
0.0780910618303329
 40
0.0780910618303329
 40
0.0780910618303329
 40
0.1096543678726288
 40
0.1096543678726288
 40
0.1096543678726288
 40
0.1435790727707335
 40
0.1435790727707335
 40
0.1435790727707335
 40
0.1773849875610086
 40
0.1773849875610086
 40
0.1773849875610086
 40
0.2039601921860667
 40
0.2039601921860667
 40
0.2039601921860667
 40
0.2082277052556973
 40
0.2082277052556973
 40
0.2082277052556973
 40
0.2125079984710584
 40
0.2125079984710584
 40
0.2125079984710584
 40
0.2169518774077575
 40
0.2169518774077575
 40
0.2169518774077575
 40
0.3274360841398333
 40
0.3274360841398333
 40
0.3274360841398333
 40
0.3477148672147899
 40
0.3477148672147899
 40
0.3477148672147899
 40
0.3923646513947699
 40
0.3923646513947699
 40
0.3923646513947699
 40
0.4572125512842822
 40
0.4572125512842822
 40
0.4572125512842822
 40
0.5273297352786263
 40
0.5273297352786263
 40
0.5273297352786263
 40
0.5871527179903194
 40
0.5871527179903194
 40
0.5871527179903194
 40
0.6366726528123275
 40
0.6366726528123275
 40
0.6366726528123275
 40
0.7076183570218345
 40
0.7076183570218345
 40
0.7076183570218345
 40
0.7858802239217433
 40
0.7858802239217433
 40
0.7858802239217433
 40
0.8524760013412738
 40
0.8524760013412738
 40
0.8524760013412738
 40
0.8896182083854686
 40
0.8896182083854686
 40
0.8896182083854686
 40
1
 40
1
 40
1
 40
1
 10
354.7829340236956
 20
232.7750884248773
 30
0
 10
354.7821457121493
 20
232.5550569309609
 30
0
 10
354.7553888228961
 20
232.3302846118931
 30
0
 10
354.6825008169664
 20
232.1226748376968
 30
0
 10
354.6048841883543
 20
231.9015963415233
 30
0
 10
354.4813542082389
 20
231.6923193046055
 30
0
 10
354.3261891531116
 20
231.5167520862109
 30
0
 10
354.1703704383738
 20
231.3404452605673
 30
0
 10
353.9766839385565
 20
231.1916129359014
 30
0
 10
353.7654207069257
 20
231.0880203898761
 30
0
 10
353.5151486201763
 20
230.965299921836
 30
0
 10
353.227593673475
 20
230.9018236093713
 30
0
 10
352.9489111151659
 20
230.9075211857179
 30
0
 10
352.6493790085412
 20
230.9136450244545
 30
0
 10
352.3431530840527
 20
231.000369719436
 30
0
 10
352.0833146105787
 20
231.1495037262975
 30
0
 10
351.8243859826104
 20
231.2981155283291
 30
0
 10
351.5957289833655
 20
231.5174388802762
 30
0
 10
351.438808778263
 20
231.7714183111661
 30
0
 10
351.3154520643188
 20
231.9710743591781
 30
0
 10
351.2308113238742
 20
232.2000151263397
 30
0
 10
351.195137864688
 20
232.4319780990155
 30
0
 10
351.1894093310619
 20
232.4692272954574
 30
0
 10
351.1849576403864
 20
232.5066872260091
 30
0
 10
351.1815497966521
 20
232.5442199495203
 30
0
 10
351.178131747269
 20
232.5818650742514
 30
0
 10
351.1757606397646
 20
232.6196140747487
 30
0
 10
351.1742154399628
 20
232.6573824588177
 30
0
 10
351.1726111851824
 20
232.6965942880062
 30
0
 10
351.1719451554832
 20
232.7358478429688
 30
0
 10
351.1718368362148
 20
232.7750882002898
 30
0
 10
350.1962350410528
 20
232.7750882002898
 30
0
 10
349.2206332458908
 20
232.7750882002898
 30
0
 10
348.245031450666
 20
232.7750882132195
 30
0
 10
348.2458285914586
 20
232.596023514965
 30
0
 10
348.2475604075912
 20
232.4164052712873
 30
0
 10
348.2661149616994
 20
232.2383026881609
 30
0
 10
348.3069683419749
 20
231.8461567754059
 30
0
 10
348.3974803791308
 20
231.4561424064331
 30
0
 10
348.5337710474637
 20
231.0861798822556
 30
0
 10
348.7317151983313
 20
230.5488582989299
 30
0
 10
349.0358543363297
 20
230.0416053005319
 30
0
 10
349.4117083768861
 20
229.6095982277104
 30
0
 10
349.8181028316272
 20
229.1424879671853
 30
0
 10
350.3292136959158
 20
228.7521913012994
 30
0
 10
350.8837452543711
 20
228.4767948615817
 30
0
 10
351.3568636819057
 20
228.2418305416595
 30
0
 10
351.8782085346951
 20
228.0876067484082
 30
0
 10
352.4027387333396
 20
228.0250180208347
 30
0
 10
352.8369314143404
 20
227.9732086731635
 30
0
 10
353.2824229391687
 20
227.9777398095386
 30
0
 10
353.7143953634802
 20
228.04561703234
 30
0
 10
354.3332691150716
 20
228.1428626646038
 30
0
 10
354.944451490548
 20
228.3699425359929
 30
0
 10
355.4751180038205
 20
228.7028907077774
 30
0
 10
356.0605086556254
 20
229.0701736292044
 30
0
 10
356.5734228792321
 20
229.5806351302912
 30
0
 10
356.9495289701728
 20
230.1603964328545
 30
0
 10
357.269570882161
 20
230.6537357332233
 30
0
 10
357.4952831759807
 20
231.2193032690022
 30
0
 10
357.611003725759
 20
231.7958613710843
 30
0
 10
357.6755441033276
 20
232.117422905919
 30
0
 10
357.7069819432298
 20
232.4471136907273
 30
0
 10
357.7070263573826
 20
232.7750882002898
 30
0
 10
356.7323289125521
 20
232.7750882002898
 30
0
 10
355.7576314677215
 20
232.7750882002898
 30
0
 10
354.782934022891
 20
232.7750882002898
 30
0
  0
SPLINE
  5
77
100
AcDbEntity
  8
0
  6
CONTINUOUS
 62
  255
370
   -3
100
AcDbSpline
210
0
220
0
230
0
 70
   11
 71
    3
 72
   71
 73
   67
 74
    0
 42
1e-07
 43
1e-07
 40
0
 40
0
 40
0
 40
0
 40
0.0779663489067787
 40
0.0779663489067787
 40
0.0779663489067787
 40
0.1351361061592741
 40
0.1351361061592741
 40
0.1351361061592741
 40
0.1478049275695237
 40
0.1478049275695237
 40
0.1478049275695237
 40
0.2135600338563244
 40
0.2135600338563244
 40
0.2135600338563244
 40
0.2232398844386291
 40
0.2232398844386291
 40
0.2232398844386291
 40
0.2735204297111811
 40
0.2735204297111811
 40
0.2735204297111811
 40
0.3322840860586316
 40
0.3322840860586316
 40
0.3322840860586316
 40
0.3763218388699611
 40
0.3763218388699611
 40
0.3763218388699611
 40
0.3973752123017099
 40
0.3973752123017099
 40
0.3973752123017099
 40
0.4627163165117202
 40
0.4627163165117202
 40
0.4627163165117202
 40
0.4732155153465041
 40
0.4732155153465041
 40
0.4732155153465041
 40
0.529958173084521
 40
0.529958173084521
 40
0.529958173084521
 40
0.5413837991371989
 40
0.5413837991371989
 40
0.5413837991371989
 40
0.6078938643730186
 40
0.6078938643730186
 40
0.6078938643730186
 40
0.631438652171013
 40
0.631438652171013
 40
0.631438652171013
 40
0.6837348984879821
 40
0.6837348984879821
 40
0.6837348984879821
 40
0.7815523602746223
 40
0.7815523602746223
 40
0.7815523602746223
 40
0.843035544814289
 40
0.843035544814289
 40
0.843035544814289
 40
0.8677935919355555
 40
0.8677935919355555
 40
0.8677935919355555
 40
0.9331475606702099
 40
0.9331475606702099
 40
0.9331475606702099
 40
0.9835563959731392
 40
0.9835563959731392
 40
0.9835563959731392
 40
1
 40
1
 40
1
 40
1
 10
363.9747883072418
 20
240.1070610836311
 30
0
 10
362.739232551039
 20
240.1070610836311
 30
0
 10
361.5037224986079
 20
240.1070610836311
 30
0
 10
360.2681667424053
 20
240.1070610836311
 30
0
 10
360.2687151876622
 20
239.2010752230406
 30
0
 10
360.2692179291476
 20
238.2950436586786
 30
0
 10
360.269812078176
 20
237.3890120943167
 30
0
 10
360.2699034857188
 20
237.1882354265281
 30
0
 10
360.2699948932616
 20
237.1880983152139
 30
0
 10
360.4662011839095
 20
237.1880526114425
 30
0
 10
361.4845726183885
 20
237.1880069076711
 30
0
 10
362.5028983490963
 20
237.1878697963569
 30
0
 10
363.5212240798039
 20
237.1881440189853
 30
0
 10
363.6711324500171
 20
237.1881897227567
 30
0
 10
363.818527112803
 20
237.178317708133
 30
0
 10
363.9666987397027
 20
237.1459594379771
 30
0
 10
364.7363502501879
 20
236.9778609667441
 30
0
 10
365.3589270242869
 20
236.2278620779639
 30
0
 10
365.3635431051989
 20
235.4398376513735
 30
0
 10
365.3688904464533
 20
234.5188609537616
 30
0
 10
365.3799507591338
 20
233.5975643297499
 30
0
 10
365.359841099715
 20
232.6769075585378
 30
0
 10
365.3447588551508
 20
231.9869634253857
 30
0
 10
365.0041743506299
 20
231.4690482878075
 30
0
 10
364.4064147244043
 20
231.1259957796306
 30
0
 10
364.1206290417999
 20
230.9620106478241
 30
0
 10
363.8054101304094
 20
230.9009504092251
 30
0
 10
363.4784910535389
 20
230.9005847790539
 30
0
 10
362.4638673283151
 20
230.8993964809973
 30
0
 10
361.4492893068628
 20
230.9002191488826
 30
0
 10
360.4347112854105
 20
230.900036333797
 30
0
 10
360.2716859328037
 20
230.900036333797
 30
0
 10
360.2699491894902
 20
230.8986652206548
 30
0
 10
360.2699034857188
 20
230.7393418735318
 30
0
 10
360.2696749668617
 20
229.8782828202339
 30
0
 10
360.2696749668617
 20
229.017223766936
 30
0
 10
360.2698577819475
 20
228.156073306095
 30
0
 10
360.2699034857188
 20
227.982673197379
 30
0
 10
360.2740625289167
 20
227.9784684504096
 30
0
 10
360.4444918924915
 20
227.9783770428667
 30
0
 10
361.4365836584117
 20
227.9781942277812
 30
0
 10
362.428766831875
 20
227.9738980732689
 30
0
 10
363.4208128940239
 20
227.9806622314371
 30
0
 10
363.7720006735112
 20
227.9830388275503
 30
0
 10
364.1238283057982
 20
228.0047938227397
 30
0
 10
364.4694859289454
 20
228.0776456343615
 30
0
 10
365.2372635848027
 20
228.2393455775977
 30
0
 10
365.9323265403523
 20
228.556346936073
 30
0
 10
366.537215954917
 20
229.059728274344
 30
0
 10
367.6685214085415
 20
230.0014087804029
 30
0
 10
368.247085450776
 20
231.2166720621011
 30
0
 10
368.2829172075588
 20
232.6811123055073
 30
0
 10
368.3054491668622
 20
233.6015862616336
 30
0
 10
368.2916923316688
 20
234.523065700731
 30
0
 10
368.2847910621863
 20
235.4439966945715
 30
0
 10
368.2820031321306
 20
235.8148370957636
 30
0
 10
368.2328715778686
 20
236.1831637895284
 30
0
 10
368.1386304012286
 20
236.5429438780401
 30
0
 10
367.8897276621488
 20
237.4926225440952
 30
0
 10
367.4002859741569
 20
238.2945866209647
 30
0
 10
366.6599762849149
 20
238.9426660995084
 30
0
 10
366.0889076611909
 20
239.4424825436096
 30
0
 10
365.4361663979637
 20
239.7838897160159
 30
0
 10
364.7017524952332
 20
239.973011922096
 30
0
 10
364.4621733255204
 20
240.0346663097233
 30
0
 10
364.2163327391249
 20
240.058249455769
 30
0
 10
363.9747883072418
 20
240.1070610836311
 30
0
  0
SPLINE
  5
78
100
AcDbEntity
  8
0
  6
CONTINUOUS
 62
  255
370
   -3
100
AcDbSpline
210
0
220
0
230
0
 70
   11
 71
    3
 72
   89
 73
   85
 74
    0
 42
1e-07
 43
1e-07
 40
0
 40
0
 40
0
 40
0
 40
0.0792365922004859
 40
0.0792365922004859
 40
0.0792365922004859
 40
0.1305032249800642
 40
0.1305032249800642
 40
0.1305032249800642
 40
0.1418644888642732
 40
0.1418644888642732
 40
0.1418644888642732
 40
0.2118194159717775
 40
0.2118194159717775
 40
0.2118194159717775
 40
0.2256057506458701
 40
0.2256057506458701
 40
0.2256057506458701
 40
0.2595234464840558
 40
0.2595234464840558
 40
0.2595234464840558
 40
0.2865700715223597
 40
0.2865700715223597
 40
0.2865700715223597
 40
0.3027026935221367
 40
0.3027026935221367
 40
0.3027026935221367
 40
0.3740141955788207
 40
0.3740141955788207
 40
0.3740141955788207
 40
0.3841573586625491
 40
0.3841573586625491
 40
0.3841573586625491
 40
0.4362568410873484
 40
0.4362568410873484
 40
0.4362568410873484
 40
0.4471364719244966
 40
0.4471364719244966
 40
0.4471364719244966
 40
0.5184930001274254
 40
0.5184930001274254
 40
0.5184930001274254
 40
0.5399362324112346
 40
0.5399362324112346
 40
0.5399362324112346
 40
0.5636615376559566
 40
0.5636615376559566
 40
0.5636615376559566
 40
0.6001179186455018
 40
0.6001179186455018
 40
0.6001179186455018
 40
0.6088073703577489
 40
0.6088073703577489
 40
0.6088073703577489
 40
0.6636509126486707
 40
0.6636509126486707
 40
0.6636509126486707
 40
0.6706744813667771
 40
0.6706744813667771
 40
0.6706744813667771
 40
0.6963824148647423
 40
0.6963824148647423
 40
0.6963824148647423
 40
0.7228298955948674
 40
0.7228298955948674
 40
0.7228298955948674
 40
0.7815646910614941
 40
0.7815646910614941
 40
0.7815646910614941
 40
0.7880827441797852
 40
0.7880827441797852
 40
0.7880827441797852
 40
0.8433262073638906
 40
0.8433262073638906
 40
0.8433262073638906
 40
0.8885296219903166
 40
0.8885296219903166
 40
0.8885296219903166
 40
0.9476186442097189
 40
0.9476186442097189
 40
0.9476186442097189
 40
0.9857884898341596
 40
0.9857884898341596
 40
0.9857884898341596
 40
1
 40
1
 40
1
 40
1
 10
374.1735848965964
 20
240.1070610836311
 30
0
 10
372.7733127482448
 20
240.1070610836311
 30
0
 10
371.3730405998933
 20
240.1070610836311
 30
0
 10
369.9727684515418
 20
240.1070610836311
 30
0
 10
369.9724028213704
 20
239.2010752230406
 30
0
 10
369.9719914874278
 20
238.29508936245
 30
0
 10
369.9717629685707
 20
237.3891035018596
 30
0
 10
369.9716715610279
 20
237.1883268340709
 30
0
 10
369.9719000798851
 20
237.1880983152139
 30
0
 10
370.1682891856186
 20
237.1880983152139
 30
0
 10
371.3775195694911
 20
237.1879612038996
 30
0
 10
372.586795657135
 20
237.1863158681289
 30
0
 10
373.7959803372361
 20
237.1892409094991
 30
0
 10
374.0342798013496
 20
237.1898350585273
 30
0
 10
374.2463453006755
 20
237.1212794014176
 30
0
 10
374.4357417293839
 20
236.9831169004559
 30
0
 10
374.9016459751015
 20
236.6431265449631
 30
0
 10
375.0799820911295
 20
236.1676702110216
 30
0
 10
375.0395799572063
 20
235.6104041262624
 30
0
 10
375.0074045021361
 20
235.1660263568772
 30
0
 10
374.8196534091982
 20
234.7910726162586
 30
0
 10
374.4509153814909
 20
234.5203234744466
 30
0
 10
374.2309888334829
 20
234.3588063462961
 30
0
 10
373.9830915773742
 20
234.2929929154707
 30
0
 10
373.7137592524759
 20
234.2929929154707
 30
0
 10
372.5232217111085
 20
234.2932671380993
 30
0
 10
371.3327298735128
 20
234.2931757305565
 30
0
 10
370.1422380359169
 20
234.2929929154707
 30
0
 10
369.9729055628558
 20
234.2929929154707
 30
0
 10
369.9718086723422
 20
234.2920788400427
 30
0
 10
369.9718086723422
 20
234.1258999272088
 30
0
 10
369.9716258572566
 20
233.2723362924215
 30
0
 10
369.9716258572566
 20
232.4187726576342
 30
0
 10
369.9717629685707
 20
231.5652090228468
 30
0
 10
369.9718086723422
 20
231.3869643143616
 30
0
 10
369.9720828949707
 20
231.3866900917331
 30
0
 10
370.1530241259689
 20
231.3866900917331
 30
0
 10
371.3397682543093
 20
231.3865986841902
 30
0
 10
372.5265580864213
 20
231.3876041671612
 30
0
 10
373.7133022147619
 20
231.3860502389335
 30
0
 10
374.0699287430465
 20
231.3855932012195
 30
0
 10
374.37906905284
 20
231.2669462106482
 30
0
 10
374.6287944598049
 20
231.0038753024325
 30
0
 10
374.9050280541856
 20
230.7127422785732
 30
0
 10
375.0419565533194
 20
230.3643881329131
 30
0
 10
375.0457956701175
 20
229.9673137669336
 30
0
 10
375.0517371604004
 20
229.3571684186573
 30
0
 10
375.0472581908026
 20
228.7468402552952
 30
0
 10
375.0478066360594
 20
228.1366949070188
 30
0
 10
375.0478980436022
 20
227.9912655064033
 30
0
 10
375.0589583562825
 20
227.978742673038
 30
0
 10
375.1971665610158
 20
227.9786512654951
 30
0
 10
376.0694687420797
 20
227.9781028202383
 30
0
 10
376.9419080344579
 20
227.9798395635517
 30
0
 10
377.814118807979
 20
227.9765488920105
 30
0
 10
377.9258188252965
 20
227.9760918542964
 30
0
 10
377.9532410881404
 20
228.0198760673038
 30
0
 10
377.9521441976266
 20
228.1231665906825
 30
0
 10
377.9475738204861
 20
228.5012281877568
 30
0
 10
377.953972348483
 20
228.8793811923741
 30
0
 10
377.9492191562567
 20
229.2574427894482
 30
0
 10
377.9444659640304
 20
229.6463818841174
 30
0
 10
377.9711569665316
 20
230.0359608315861
 30
0
 10
377.928926681752
 20
230.4243514809984
 30
0
 10
377.8349597277403
 20
231.2868730549814
 30
0
 10
377.5196037050358
 20
232.0597238294649
 30
0
 10
376.9856008399225
 20
232.742355359192
 30
0
 10
376.9263687521797
 20
232.8181322121839
 30
0
 10
376.9230780806384
 20
232.8679493230169
 30
0
 10
376.9839555041518
 20
232.9443660288086
 30
0
 10
377.4998596757882
 20
233.5920798771811
 30
0
 10
377.8033327179272
 20
234.3297387476816
 30
0
 10
377.9124733240457
 20
235.1501214444278
 30
0
 10
378.0016870858312
 20
235.8214184388461
 30
0
 10
377.9464769299721
 20
236.4799183772705
 30
0
 10
377.7389818077868
 20
237.1232446635881
 30
0
 10
377.4680498508893
 20
237.9642854650101
 30
0
 10
376.9921821830049
 20
238.6691290276407
 30
0
 10
376.3009126404821
 20
239.2228759220015
 30
0
 10
375.8543867938409
 20
239.5805993408
 30
0
 10
375.3543875346541
 20
239.8347580135914
 30
0
 10
374.7995437497796
 20
239.9820612688345
 30
0
 10
374.5929627030221
 20
240.0369057945222
 30
0
 10
374.3801659433537
 20
240.0557814521131
 30
0
 10
374.1735848965964
 20
240.1070610836311
 30
0
  0
SPLINE
  5
79
100
AcDbEntity
  8
0
  6
CONTINUOUS
 62
  255
370
   -3
100
AcDbSpline
210
0
220
0
230
0
 70
   11
 71
    3
 72
   71
 73
   67
 74
    0
 42
1e-07
 43
1e-07
 40
0
 40
0
 40
0
 40
0
 40
0.0202780849681497
 40
0.0202780849681497
 40
0.0202780849681497
 40
0.0649263320579609
 40
0.0649263320579609
 40
0.0649263320579609
 40
0.1297719995275263
 40
0.1297719995275263
 40
0.1297719995275263
 40
0.1998867697043187
 40
0.1998867697043187
 40
0.1998867697043187
 40
0.2597076929812512
 40
0.2597076929812512
 40
0.2597076929812512
 40
0.3092259230558439
 40
0.3092259230558439
 40
0.3092259230558439
 40
0.3801691849255936
 40
0.3801691849255936
 40
0.3801691849255936
 40
0.4584283576233424
 40
0.4584283576233424
 40
0.4584283576233424
 40
0.5250218424514073
 40
0.5250218424514073
 40
0.5250218424514073
 40
0.5621627708573712
 40
0.5621627708573712
 40
0.5621627708573712
 40
0.6725407625259658
 40
0.6725407625259658
 40
0.6725407625259658
 40
0.6974580231805491
 40
0.6974580231805491
 40
0.6974580231805491
 40
0.7239917956660119
 40
0.7239917956660119
 40
0.7239917956660119
 40
0.7506373462536526
 40
0.7506373462536526
 40
0.7506373462536526
 40
0.7822028841689724
 40
0.7822028841689724
 40
0.7822028841689724
 40
0.8161299879169829
 40
0.8161299879169829
 40
0.8161299879169829
 40
0.8499382931573993
 40
0.8499382931573993
 40
0.8499382931573993
 40
0.8765153769418361
 40
0.8765153769418361
 40
0.8765153769418361
 40
0.8807831917715915
 40
0.8807831917715915
 40
0.8807831917715915
 40
0.8850637876507811
 40
0.8850637876507811
 40
0.8850637876507811
 40
0.889507980818626
 40
0.889507980818626
 40
0.889507980818626
 40
1
 40
1
 40
1
 40
1
 10
379.6755914506661
 20
232.7750882132195
 30
0
 10
379.6763885914586
 20
232.596023514965
 30
0
 10
379.6781204075913
 20
232.4164052712873
 30
0
 10
379.6966749616995
 20
232.2383026881609
 30
0
 10
379.737528341975
 20
231.8461567754059
 30
0
 10
379.8280403791308
 20
231.4561424064331
 30
0
 10
379.9643310474637
 20
231.0861798822556
 30
0
 10
380.1622751983313
 20
230.5488582989299
 30
0
 10
380.4664143363297
 20
230.0416053005319
 30
0
 10
380.842268376886
 20
229.6095982277104
 30
0
 10
381.2486628316271
 20
229.1424879671853
 30
0
 10
381.7597736959158
 20
228.7521913012994
 30
0
 10
382.3143052543712
 20
228.4767948615818
 30
0
 10
382.7874236819059
 20
228.2418305416597
 30
0
 10
383.3087685346951
 20
228.0876067484083
 30
0
 10
383.8332987333396
 20
228.0250180208347
 30
0
 10
384.2674914143404
 20
227.9732086731635
 30
0
 10
384.7129829391687
 20
227.9777398095386
 30
0
 10
385.1449553634801
 20
228.04561703234
 30
0
 10
385.7638291150716
 20
228.1428626646038
 30
0
 10
386.375011490548
 20
228.3699425359931
 30
0
 10
386.9056780038204
 20
228.7028907077775
 30
0
 10
387.4910686556253
 20
229.0701736292044
 30
0
 10
388.0039828792322
 20
229.5806351302912
 30
0
 10
388.3800889701728
 20
230.1603964328545
 30
0
 10
388.700130882161
 20
230.6537357332233
 30
0
 10
388.9258431759808
 20
231.2193032690022
 30
0
 10
389.0415637257589
 20
231.7958613710843
 30
0
 10
389.1061041033275
 20
232.117422905919
 30
0
 10
389.1375419432298
 20
232.4471136907273
 30
0
 10
389.1375863573826
 20
232.7750882002898
 30
0
 10
388.1628889125521
 20
232.7750882002898
 30
0
 10
387.1881914677215
 20
232.7750882002898
 30
0
 10
386.2134940236957
 20
232.7750884248773
 30
0
 10
386.2127057121494
 20
232.5550569309609
 30
0
 10
386.1859488228961
 20
232.3302846118931
 30
0
 10
386.1130608169665
 20
232.1226748376968
 30
0
 10
386.0354441883543
 20
231.9015963415233
 30
0
 10
385.911914208239
 20
231.6923193046055
 30
0
 10
385.7567491531116
 20
231.5167520862109
 30
0
 10
385.6009304383737
 20
231.3404452605673
 30
0
 10
385.4072439385565
 20
231.1916129359014
 30
0
 10
385.1959807069256
 20
231.0880203898761
 30
0
 10
384.9457086201762
 20
230.965299921836
 30
0
 10
384.658153673475
 20
230.9018236093713
 30
0
 10
384.3794711151659
 20
230.9075211857179
 30
0
 10
384.0799390085413
 20
230.9136450244545
 30
0
 10
383.7737130840528
 20
231.000369719436
 30
0
 10
383.5138746105788
 20
231.1495037262975
 30
0
 10
383.2549459826105
 20
231.2981155283291
 30
0
 10
383.0262889833655
 20
231.5174388802762
 30
0
 10
382.8693687782629
 20
231.7714183111661
 30
0
 10
382.7460120643187
 20
231.9710743591781
 30
0
 10
382.6613713238742
 20
232.2000151263397
 30
0
 10
382.625697864688
 20
232.4319780990155
 30
0
 10
382.6199693310618
 20
232.4692272954573
 30
0
 10
382.6155176403864
 20
232.5066872260091
 30
0
 10
382.6121097966521
 20
232.5442199495203
 30
0
 10
382.6086917472691
 20
232.5818650742514
 30
0
 10
382.6063206397646
 20
232.6196140747487
 30
0
 10
382.6047754399628
 20
232.6573824588177
 30
0
 10
382.6031711851824
 20
232.6965942880062
 30
0
 10
382.6025051554831
 20
232.7358478429688
 30
0
 10
382.6023968362148
 20
232.7750882002898
 30
0
 10
381.6267950410528
 20
232.7750882002898
 30
0
 10
380.6511932458907
 20
232.7750882002898
 30
0
 10
379.6755914507287
 20
232.7750882002898
 30
0
  0
SPLINE
  5
7A
100
AcDbEntity
  8
0
  6
CONTINUOUS
 62
  255
370
   -3
100
AcDbSpline
210
0
220
0
230
0
 70
   11
 71
    3
 72
   35
 73
   31
 74
    0
 42
1e-07
 43
1e-07
 40
0
 40
0
 40
0
 40
0
 40
0.0960206016267463
 40
0.0960206016267463
 40
0.0960206016267463
 40
0.2673024222382769
 40
0.2673024222382769
 40
0.2673024222382769
 40
0.489164108842438
 40
0.489164108842438
 40
0.489164108842438
 40
0.505456386095638
 40
0.505456386095638
 40
0.505456386095638
 40
0.5460234391065609
 40
0.5460234391065609
 40
0.5460234391065609
 40
0.5917886001645701
 40
0.5917886001645701
 40
0.5917886001645701
 40
0.605147380827794
 40
0.605147380827794
 40
0.605147380827794
 40
0.6081029452017757
 40
0.6081029452017757
 40
0.6081029452017757
 40
0.9944503432626529
 40
0.9944503432626529
 40
0.9944503432626529
 40
1
 40
1
 40
1
 40
1
 10
393.8747897103852
 20
240.1070610836311
 30
0
 10
392.9012993794274
 20
240.1070610836311
 30
0
 10
391.9279918635551
 20
240.1070610836311
 30
0
 10
390.9545015325971
 20
240.1070610836311
 30
0
 10
390.9546843476828
 20
238.3705462890421
 30
0
 10
390.9548671627685
 20
236.6340314944533
 30
0
 10
390.9550499778541
 20
234.8975166998643
 30
0
 10
390.9552327929397
 20
232.6482055900946
 30
0
 10
390.9550499778541
 20
230.3990315916392
 30
0
 10
390.9552327929397
 20
228.149766185641
 30
0
 10
390.9552327929397
 20
227.984592755778
 30
0
 10
390.9612656907654
 20
227.9785598579523
 30
0
 10
391.1250680074862
 20
227.9784684504096
 30
0
 10
391.5329284635175
 20
227.9781028202383
 30
0
 10
391.940788919549
 20
227.978285635324
 30
0
 10
392.348832190666
 20
227.978285635324
 30
0
 10
392.8091605762718
 20
227.978285635324
 30
0
 10
393.2694889618779
 20
227.9778285976099
 30
0
 10
393.7298173474839
 20
227.9786512654951
 30
0
 10
393.8641864354188
 20
227.9789254881236
 30
0
 10
393.8757037858134
 20
227.9922709893743
 30
0
 10
393.877349121584
 20
228.1273713376518
 30
0
 10
393.8777147517554
 20
228.1572616041518
 30
0
 10
393.877349121584
 20
228.1872432781943
 30
0
 10
393.877349121584
 20
228.2171335446941
 30
0
 10
393.877349121584
 20
232.1243489622336
 30
0
 10
393.877349121584
 20
236.0315643797731
 30
0
 10
393.877349121584
 20
239.9387340935411
 30
0
 10
393.877349121584
 20
239.9948583248283
 30
0
 10
393.8757037858134
 20
240.0509825561155
 30
0
 10
393.8747897103852
 20
240.1070610836311
 30
0
  0
SPLINE
  5
7B
100
AcDbEntity
  8
0
  6
CONTINUOUS
 62
  255
370
   -3
100
AcDbSpline
210
0
220
0
230
0
 70
   11
 71
    3
 72
   77
 73
   73
 74
    0
 42
1e-07
 43
1e-07
 40
0
 40
0
 40
0
 40
0
 40
0.0673971957956756
 40
0.0673971957956756
 40
0.0673971957956756
 40
0.0779031237574369
 40
0.0779031237574369
 40
0.0779031237574369
 40
0.1272754278268955
 40
0.1272754278268955
 40
0.1272754278268955
 40
0.2018971443151316
 40
0.2018971443151316
 40
0.2018971443151316
 40
0.2173737817864943
 40
0.2173737817864943
 40
0.2173737817864943
 40
0.2195450277201742
 40
0.2195450277201742
 40
0.2195450277201742
 40
0.2997083256417573
 40
0.2997083256417573
 40
0.2997083256417573
 40
0.3595742585942774
 40
0.3595742585942774
 40
0.3595742585942774
 40
0.3704687423949364
 40
0.3704687423949364
 40
0.3704687423949364
 40
0.4369650959641209
 40
0.4369650959641209
 40
0.4369650959641209
 40
0.4463771778729373
 40
0.4463771778729373
 40
0.4463771778729373
 40
0.4960261625065432
 40
0.4960261625065432
 40
0.4960261625065432
 40
0.5557940290623156
 40
0.5557940290623156
 40
0.5557940290623156
 40
0.5846273685323976
 40
0.5846273685323976
 40
0.5846273685323976
 40
0.6197295800512705
 40
0.6197295800512705
 40
0.6197295800512705
 40
0.6860297703622256
 40
0.6860297703622256
 40
0.6860297703622256
 40
0.6970877372933341
 40
0.6970877372933341
 40
0.6970877372933341
 40
0.7547655063070495
 40
0.7547655063070495
 40
0.7547655063070495
 40
0.7656336631745562
 40
0.7656336631745562
 40
0.7656336631745562
 40
0.8414033264353987
 40
0.8414033264353987
 40
0.8414033264353987
 40
0.8756473320628081
 40
0.8756473320628081
 40
0.8756473320628081
 40
0.9351965353699038
 40
0.9351965353699038
 40
0.9351965353699038
 40
0.9882504476125604
 40
0.9882504476125604
 40
0.9882504476125604
 40
1
 40
1
 40
1
 40
1
 10
403.5793457157502
 20
232.5142021323308
 30
0
 10
403.5793457157502
 20
233.5474729962884
 30
0
 10
403.5793457157502
 20
234.5808809715601
 30
0
 10
403.5793457157502
 20
235.614197539289
 30
0
 10
403.5435139589676
 20
235.7712356978417
 30
0
 10
403.5466218154233
 20
235.9327071222208
 30
0
 10
403.522307409035
 20
236.0916648391726
 30
0
 10
403.40841361069
 20
236.8387386865828
 30
0
 10
403.1303518654532
 20
237.5175768032831
 30
0
 10
402.6890362487522
 20
238.1282705968164
 30
0
 10
402.0221268163888
 20
239.051349667913
 30
0
 10
401.133645500247
 20
239.657838714477
 30
0
 10
400.0362065412348
 20
239.9589808642742
 30
0
 10
399.8086017596307
 20
240.0214579197869
 30
0
 10
399.5762437858
 20
240.059711976454
 30
0
 10
399.3416920309419
 20
240.0868143128981
 30
0
 10
399.3087853155294
 20
240.0906077259248
 30
0
 10
399.2764270453735
 20
240.1001598141488
 30
0
 10
399.2438859601321
 20
240.1070610836311
 30
0
 10
398.0157342148975
 20
240.1070610836311
 30
0
 10
396.7877652847483
 20
240.1070610836311
 30
0
 10
395.5596135395136
 20
240.1070610836311
 30
0
 10
395.5590650942566
 20
239.1898777990461
 30
0
 10
395.5581510188285
 20
238.272694514461
 30
0
 10
395.5577853886572
 20
237.3555112298758
 30
0
 10
395.5576025735716
 20
237.1886010566994
 30
0
 10
395.5581510188285
 20
237.1881440189853
 30
0
 10
395.7274377881182
 20
237.1881440189853
 30
0
 10
396.7607086520757
 20
237.1879612038996
 30
0
 10
397.7939795160333
 20
237.1877326850426
 30
0
 10
398.8272503799909
 20
237.1882354265281
 30
0
 10
398.9735024484916
 20
237.1883268340709
 30
0
 10
399.1170122907078
 20
237.1770837063049
 30
0
 10
399.2612533932667
 20
237.1449996587775
 30
0
 10
400.0221297796417
 20
236.9757585932594
 30
0
 10
400.6316352751183
 20
236.2386481680159
 30
0
 10
400.6358400220877
 20
235.4611813126202
 30
0
 10
400.6407760293997
 20
234.5252594817585
 30
0
 10
400.6393135087147
 20
233.5893376508968
 30
0
 10
400.6360228371734
 20
232.6533244124921
 30
0
 10
400.6343775014028
 20
232.2017711509962
 30
0
 10
400.4590578342874
 20
231.8145687996405
 30
0
 10
400.156316052491
 20
231.4875126114559
 30
0
 10
399.7877608398692
 20
231.0893413549625
 30
0
 10
399.3221308167801
 20
230.9023215223673
 30
0
 10
398.7830091292693
 20
230.9008590016824
 30
0
 10
397.7647291023331
 20
230.8982081829407
 30
0
 10
396.7464490753967
 20
230.9002191488826
 30
0
 10
395.7281690484605
 20
230.900036333797
 30
0
 10
395.558333833914
 20
230.900036333797
 30
0
 10
395.5577853886572
 20
230.8997621111686
 30
0
 10
395.5577853886572
 20
230.7346800888484
 30
0
 10
395.5576025735716
 20
229.8736210355505
 30
0
 10
395.5576025735716
 20
229.0125619822524
 30
0
 10
395.5577853886572
 20
228.1515029289545
 30
0
 10
395.5577853886572
 20
227.9892545404614
 30
0
 10
395.5672917731098
 20
227.9775543749814
 30
0
 10
395.7289003088031
 20
227.9788340805807
 30
0
 10
396.8555896815154
 20
227.987609204691
 30
0
 10
397.9824618693136
 20
227.9544282666498
 30
0
 10
399.1086027967689
 20
227.9976640344002
 30
0
 10
399.6175599951515
 20
228.0172252485623
 30
0
 10
400.1095153905708
 20
228.13121045445
 30
0
 10
400.5809954963999
 20
228.3217037736721
 30
0
 10
401.4009211554322
 20
228.6528733012836
 30
0
 10
402.0826386097311
 20
229.1692345106339
 30
0
 10
402.6157273994161
 20
229.8764546693776
 30
0
 10
403.0906809918723
 20
230.5065268619872
 30
0
 10
403.3963478150387
 20
231.2104563491898
 30
0
 10
403.5155432508668
 20
231.992265062869
 30
0
 10
403.5420514382827
 20
232.1653909489566
 30
0
 10
403.5583219809033
 20
232.3401621708149
 30
0
 10
403.5793457157502
 20
232.5142021323308
 30
0
  0
SPLINE
  5
7C
100
AcDbEntity
  8
0
  6
CONTINUOUS
 62
  255
370
   -3
100
AcDbSpline
210
0
220
0
230
0
 70
    8
 71
    3
 72
  101
 73
   97
 74
    0
 42
1e-07
 43
1e-07
 40
0
 40
0
 40
0
 40
0
 40
0.1102219501308589
 40
0.1102219501308589
 40
0.1102219501308589
 40
0.1401741824805976
 40
0.1401741824805976
 40
0.1401741824805976
 40
0.168597717484129
 40
0.168597717484129
 40
0.168597717484129
 40
0.197624015505363
 40
0.197624015505363
 40
0.197624015505363
 40
0.229614847041067
 40
0.229614847041067
 40
0.229614847041067
 40
0.2599651216072668
 40
0.2599651216072668
 40
0.2599651216072668
 40
0.2898553768419882
 40
0.2898553768419882
 40
0.2898553768419882
 40
0.3105625321884073
 40
0.3105625321884073
 40
0.3105625321884073
 40
0.3158023136838998
 40
0.3158023136838998
 40
0.3158023136838998
 40
0.3210423521180313
 40
0.3210423521180313
 40
0.3210423521180313
 40
0.3271577515461687
 40
0.3271577515461687
 40
0.3271577515461687
 40
0.4370862681700153
 40
0.4370862681700153
 40
0.4370862681700153
 40
0.4693695937762407
 40
0.4693695937762407
 40
0.4693695937762407
 40
0.4928405308691678
 40
0.4928405308691678
 40
0.4928405308691678
 40
0.5188347909870998
 40
0.5188347909870998
 40
0.5188347909870998
 40
0.5531614390825109
 40
0.5531614390825109
 40
0.5531614390825109
 40
0.5875028359234072
 40
0.5875028359234072
 40
0.5875028359234072
 40
0.6217032749427124
 40
0.6217032749427124
 40
0.6217032749427124
 40
0.6553597500470812
 40
0.6553597500470812
 40
0.6553597500470812
 40
0.6803490854248384
 40
0.6803490854248384
 40
0.6803490854248384
 40
0.6917613208099425
 40
0.6917613208099425
 40
0.6917613208099425
 40
0.7031642771410102
 40
0.7031642771410102
 40
0.7031642771410102
 40
0.7190108106515399
 40
0.7190108106515399
 40
0.7190108106515399
 40
0.7345252388529282
 40
0.7345252388529282
 40
0.7345252388529282
 40
0.7364367182412209
 40
0.7364367182412209
 40
0.7364367182412209
 40
0.7389139684665001
 40
0.7389139684665001
 40
0.7389139684665001
 40
0.7528067639809083
 40
0.7528067639809083
 40
0.7528067639809083
 40
0.769357321263583
 40
0.769357321263583
 40
0.769357321263583
 40
0.8191415580591002
 40
0.8191415580591002
 40
0.8191415580591002
 40
0.8707993028629609
 40
0.8707993028629609
 40
0.8707993028629609
 40
0.935776212132906
 40
0.935776212132906
 40
0.935776212132906
 40
1
 40
1
 40
1
 40
1
 10
379.6753185605173
 20
235.3257277714898
 30
0
 10
380.6506453285888
 20
235.3257277714898
 30
0
 10
381.6259720966603
 20
235.3257277714898
 30
0
 10
382.6012988636763
 20
235.3257267749559
 30
0
 10
382.6015795913456
 20
235.5907665199521
 30
0
 10
382.6499416028686
 20
235.8621721030379
 30
0
 10
382.753498266667
 20
236.1061437461006
 30
0
 10
382.8517696216681
 20
236.3376636026339
 30
0
 10
383.0025996881144
 20
236.5532085972893
 30
0
 10
383.1883745986613
 20
236.7227561888209
 30
0
 10
383.3780891404215
 20
236.8958992873121
 30
0
 10
383.6122821601726
 20
237.0281092708321
 30
0
 10
383.8572638866975
 20
237.1052720441059
 30
0
 10
384.1272662527192
 20
237.1903156579635
 30
0
 10
384.4241759080405
 20
237.2168095645284
 30
0
 10
384.7038121144607
 20
237.1727949536112
 30
0
 10
384.9691079894376
 20
237.1310375043004
 30
0
 10
385.2306356851883
 20
237.0229387233449
 30
0
 10
385.4491076698525
 20
236.8667478856827
 30
0
 10
385.6642682730624
 20
236.7129244336786
 30
0
 10
385.8485963178435
 20
236.5063544031654
 30
0
 10
385.9793113754686
 20
236.276421123125
 30
0
 10
386.069867209907
 20
236.1171296044772
 30
0
 10
386.139137084909
 20
235.9429394292853
 30
0
 10
386.1779276633602
 20
235.7638600109051
 30
0
 10
386.1877433117082
 20
235.7185453838135
 30
0
 10
386.1953052538969
 20
235.6727013666039
 30
0
 10
386.2009240977721
 20
235.6266775578258
 30
0
 10
386.2065432171737
 20
235.5806514922178
 30
0
 10
386.2102349994317
 20
235.5343655256501
 30
0
 10
386.2123989708064
 20
235.4880482454395
 30
0
 10
386.2149244387917
 20
235.4339935524306
 30
0
 10
386.2149475693718
 20
235.3798350140941
 30
0
 10
386.2146139247951
 20
235.3257277714898
 30
0
 10
387.1872473674398
 20
235.3257277714898
 30
0
 10
388.1598808100845
 20
235.3257277714898
 30
0
 10
389.1325143056249
 20
235.3257258455373
 30
0
 10
389.1246709157664
 20
235.6112568866876
 30
0
 10
389.1166637653096
 20
235.8984091793274
 30
0
 10
389.0716395361645
 20
236.1804771020247
 30
0
 10
389.038905583572
 20
236.385548864157
 30
0
 10
388.9894718023073
 20
236.5884687009031
 30
0
 10
388.9262428396755
 20
236.786276783551
 30
0
 10
388.8562162320828
 20
237.0053508977812
 30
0
 10
388.7691020102078
 20
237.219451563609
 30
0
 10
388.6689160456816
 20
237.4264780493747
 30
0
 10
388.536615748124
 20
237.6998663008991
 30
0
 10
388.3789820706098
 20
237.9626264087819
 30
0
 10
388.1977887963972
 20
238.2063752594162
 30
0
 10
388.0165176709048
 20
238.4502288388825
 30
0
 10
387.810017118629
 20
238.677112011105
 30
0
 10
387.5845686545844
 20
238.880819593722
 30
0
 10
387.3600455671202
 20
239.0836910374593
 30
0
 10
387.1157639593857
 20
239.2666627789451
 30
0
 10
386.8576423332173
 20
239.4245889186203
 30
0
 10
386.6036261762864
 20
239.5800032156504
 30
0
 10
386.3335767002993
 20
239.7117949880312
 30
0
 10
386.0547107209694
 20
239.8162534835006
 30
0
 10
385.8476576810621
 20
239.8938120622955
 30
0
 10
385.6352080118531
 20
239.9599164498176
 30
0
 10
385.4185814017495
 20
240.0041793719365
 30
0
 10
385.3196514451177
 20
240.0243935504417
 30
0
 10
385.2198215948806
 20
240.0400239206107
 30
0
 10
385.1200621497807
 20
240.0556380951064
 30
0
 10
385.0203838170352
 20
240.0712395740376
 30
0
 10
384.920634348745
 20
240.0868543370336
 30
0
 10
384.8217866701909
 20
240.1070610836311
 30
0
 10
384.6815785626513
 20
240.1070610836311
 30
0
 10
384.5413704551119
 20
240.1070610836311
 30
0
 10
384.4011623475723
 20
240.1070610836311
 30
0
 10
384.2638926654536
 20
240.1070610836311
 30
0
 10
384.1234654357366
 20
240.1360794149055
 30
0
 10
383.9893533801055
 20
240.106806182023
 30
0
 10
383.9728298945647
 20
240.1031995275877
 30
0
 10
383.9564528102121
 20
240.098950875296
 30
0
 10
383.9399751955863
 20
240.0951401343081
 30
0
 10
383.9186204403146
 20
240.0902014679386
 30
0
 10
383.8968763862072
 20
240.0869480900595
 30
0
 10
383.8751154984806
 20
240.084325159719
 30
0
 10
383.753077135011
 20
240.0696153679923
 30
0
 10
383.6313383888746
 20
240.0516509156541
 30
0
 10
383.5105350231894
 20
240.0289289665713
 30
0
 10
383.3666213650894
 20
240.0018601941651
 30
0
 10
383.2239730341843
 20
239.9671029382573
 30
0
 10
383.0835831616041
 20
239.9254550919241
 30
0
 10
382.6612890635351
 20
239.8001779662985
 30
0
 10
382.2510445300497
 20
239.6179523546211
 30
0
 10
381.8789664110807
 20
239.3821886236247
 30
0
 10
381.4928860419922
 20
239.1375525011539
 30
0
 10
381.1419410431495
 20
238.8302404862972
 30
0
 10
380.8409255397906
 20
238.4863007378663
 30
0
 10
380.4622977633583
 20
238.0536813520807
 30
0
 10
380.1504679558724
 20
237.5476049742655
 30
0
 10
379.9531160835415
 20
237.0076320448226
 30
0
 10
379.7580516379382
 20
236.4739177259339
 30
0
 10
379.6839536410669
 20
235.8938654516389
 30
0
 10
379.6753185217579
 20
235.3256871813398
 30
0
  0
ENDBLK
  5
59
330
57
100
AcDbEntity
  8
0
100
AcDbBlockEnd
  0
BLOCK
  5
5B
330
5A
100
AcDbEntity
  8
0
100
AcDbBlockBegin
  2
ODROID-LOGO-3
 70
    0
 10
0
 20
0
  3
ODROID-LOGO-3
  1

  0
SPLINE
  5
7D
100
AcDbEntity
  8
0
  6
CONTINUOUS
 62
  255
370
   -3
100
AcDbSpline
210
0
220
0
230
0
 70
   11
 71
    3
 72
  101
 73
   97
 74
    0
 42
1e-07
 43
1e-07
 40
0
 40
0
 40
0
 40
0
 40
0.0158446293361482
 40
0.0158446293361482
 40
0.0158446293361482
 40
0.0313571932700797
 40
0.0313571932700797
 40
0.0313571932700797
 40
0.0332684429683859
 40
0.0332684429683859
 40
0.0332684429683859
 40
0.0357453955186861
 40
0.0357453955186861
 40
0.0357453955186861
 40
0.0496365216265651
 40
0.0496365216265651
 40
0.0496365216265651
 40
0.06618509013683931
 40
0.06618509013683931
 40
0.06618509013683931
 40
0.1159633446856475
 40
0.1159633446856475
 40
0.1159633446856475
 40
0.1676148821155846
 40
0.1676148821155846
 40
0.1676148821155846
 40
0.2325839835345676
 40
0.2325839835345676
 40
0.2325839835345676
 40
0.2968000540483794
 40
0.2968000540483794
 40
0.2968000540483794
 40
0.4070275953134707
 40
0.4070275953134707
 40
0.4070275953134707
 40
0.4369813470243806
 40
0.4369813470243806
 40
0.4369813470243806
 40
0.4654063238441727
 40
0.4654063238441727
 40
0.4654063238441727
 40
0.4944340942575091
 40
0.4944340942575091
 40
0.4944340942575091
 40
0.5264265485646622
 40
0.5264265485646622
 40
0.5264265485646622
 40
0.556778362683186
 40
0.556778362683186
 40
0.556778362683186
 40
0.5866701341352205
 40
0.5866701341352205
 40
0.5866701341352205
 40
0.6073783398757272
 40
0.6073783398757272
 40
0.6073783398757272
 40
0.6126183871651156
 40
0.6126183871651156
 40
0.6126183871651156
 40
0.6178586914061783
 40
0.6178586914061783
 40
0.6178586914061783
 40
0.6239744010449325
 40
0.6239744010449325
 40
0.6239744010449325
 40
0.7339084939182612
 40
0.7339084939182612
 40
0.7339084939182612
 40
0.766193457133031
 40
0.766193457133031
 40
0.766193457133031
 40
0.7896655848160353
 40
0.7896655848160353
 40
0.7896655848160353
 40
0.8156611635224854
 40
0.8156611635224854
 40
0.8156611635224854
 40
0.8499895528763067
 40
0.8499895528763067
 40
0.8499895528763067
 40
0.8843326917237692
 40
0.8843326917237692
 40
0.8843326917237692
 40
0.9185348655993755
 40
0.9185348655993755
 40
0.9185348655993755
 40
0.9521930479668549
 40
0.9521930479668549
 40
0.9521930479668549
 40
0.9771836509571731
 40
0.9771836509571731
 40
0.9771836509571731
 40
0.9885964652409468
 40
0.9885964652409468
 40
0.9885964652409468
 40
1
 40
1
 40
1
 40
1
 10
353.3912266701909
 20
240.1070610836311
 30
0
 10
353.2510185626514
 20
240.1070610836311
 30
0
 10
353.110810455112
 20
240.1070610836311
 30
0
 10
352.9706023475724
 20
240.1070610836311
 30
0
 10
352.8333326654537
 20
240.1070610836311
 30
0
 10
352.6929054357366
 20
240.1360794149055
 30
0
 10
352.5587933801056
 20
240.106806182023
 30
0
 10
352.5422698945648
 20
240.1031995275877
 30
0
 10
352.5258928102121
 20
240.0989508752961
 30
0
 10
352.5094151955863
 20
240.0951401343081
 30
0
 10
352.4880604403146
 20
240.0902014679386
 30
0
 10
352.4663163862073
 20
240.0869480900595
 30
0
 10
352.4445554984806
 20
240.084325159719
 30
0
 10
352.322517135011
 20
240.0696153679923
 30
0
 10
352.2007783888745
 20
240.0516509156541
 30
0
 10
352.0799750231894
 20
240.0289289665713
 30
0
 10
351.9360613650894
 20
240.0018601941651
 30
0
 10
351.7934130341843
 20
239.9671029382573
 30
0
 10
351.653023161604
 20
239.9254550919241
 30
0
 10
351.2307290635351
 20
239.8001779662985
 30
0
 10
350.8204845300497
 20
239.6179523546211
 30
0
 10
350.4484064110807
 20
239.3821886236247
 30
0
 10
350.0623260419921
 20
239.1375525011539
 30
0
 10
349.7113810431493
 20
238.8302404862972
 30
0
 10
349.4103655397905
 20
238.4863007378663
 30
0
 10
349.0317377633583
 20
238.0536813520807
 30
0
 10
348.7199079558725
 20
237.5476049742655
 30
0
 10
348.5225560835415
 20
237.0076320448226
 30
0
 10
348.3274916379382
 20
236.4739177259339
 30
0
 10
348.253393641067
 20
235.8938654516389
 30
0
 10
348.2447585605173
 20
235.3257277714898
 30
0
 10
349.2200853285888
 20
235.3257277714898
 30
0
 10
350.1954120966603
 20
235.3257277714898
 30
0
 10
351.1707388636764
 20
235.3257267749559
 30
0
 10
351.1710195913457
 20
235.5907665199521
 30
0
 10
351.2193816028688
 20
235.8621721030379
 30
0
 10
351.3229382666669
 20
236.1061437461006
 30
0
 10
351.4212096216681
 20
236.3376636026339
 30
0
 10
351.5720396881143
 20
236.5532085972893
 30
0
 10
351.7578145986612
 20
236.7227561888209
 30
0
 10
351.9475291404215
 20
236.8958992873123
 30
0
 10
352.1817221601726
 20
237.0281092708321
 30
0
 10
352.4267038866975
 20
237.1052720441059
 30
0
 10
352.6967062527192
 20
237.1903156579635
 30
0
 10
352.9936159080406
 20
237.2168095645284
 30
0
 10
353.2732521144608
 20
237.1727949536112
 30
0
 10
353.5385479894377
 20
237.1310375043004
 30
0
 10
353.8000756851883
 20
237.0229387233449
 30
0
 10
354.0185476698525
 20
236.8667478856827
 30
0
 10
354.2337082730623
 20
236.7129244336786
 30
0
 10
354.4180363178434
 20
236.5063544031654
 30
0
 10
354.5487513754686
 20
236.276421123125
 30
0
 10
354.639307209907
 20
236.1171296044772
 30
0
 10
354.7085770849089
 20
235.9429394292853
 30
0
 10
354.7473676633601
 20
235.7638600109051
 30
0
 10
354.7571833117082
 20
235.7185453838135
 30
0
 10
354.764745253897
 20
235.6727013666039
 30
0
 10
354.7703640977721
 20
235.6266775578258
 30
0
 10
354.7759832171737
 20
235.5806514922178
 30
0
 10
354.7796749994318
 20
235.5343655256501
 30
0
 10
354.7818389708066
 20
235.4880482454395
 30
0
 10
354.784364438792
 20
235.4339935524306
 30
0
 10
354.7843875693719
 20
235.3798350140941
 30
0
 10
354.7840539247952
 20
235.3257277714898
 30
0
 10
355.7566873674398
 20
235.3257277714898
 30
0
 10
356.7293208100846
 20
235.3257277714898
 30
0
 10
357.7019543056248
 20
235.3257258455373
 30
0
 10
357.6941109157664
 20
235.6112568866876
 30
0
 10
357.6861037653097
 20
235.8984091793274
 30
0
 10
357.6410795361645
 20
236.1804771020247
 30
0
 10
357.608345583572
 20
236.385548864157
 30
0
 10
357.5589118023073
 20
236.5884687009031
 30
0
 10
357.4956828396755
 20
236.786276783551
 30
0
 10
357.4256562320828
 20
237.0053508977812
 30
0
 10
357.3385420102078
 20
237.219451563609
 30
0
 10
357.2383560456815
 20
237.4264780493747
 30
0
 10
357.106055748124
 20
237.6998663008991
 30
0
 10
356.9484220706098
 20
237.9626264087819
 30
0
 10
356.7672287963973
 20
238.2063752594162
 30
0
 10
356.5859576709049
 20
238.4502288388825
 30
0
 10
356.3794571186291
 20
238.677112011105
 30
0
 10
356.1540086545843
 20
238.880819593722
 30
0
 10
355.9294855671201
 20
239.0836910374592
 30
0
 10
355.6852039593857
 20
239.2666627789451
 30
0
 10
355.4270823332173
 20
239.4245889186203
 30
0
 10
355.1730661762863
 20
239.5800032156504
 30
0
 10
354.9030167002992
 20
239.7117949880312
 30
0
 10
354.6241507209693
 20
239.8162534835006
 30
0
 10
354.4170976810621
 20
239.8938120622955
 30
0
 10
354.2046480118532
 20
239.9599164498176
 30
0
 10
353.9880214017495
 20
240.0041793719365
 30
0
 10
353.8890914451176
 20
240.0243935504417
 30
0
 10
353.7892615948804
 20
240.0400239206107
 30
0
 10
353.6895021497805
 20
240.0556380951064
 30
0
 10
353.5898238170351
 20
240.0712395740376
 30
0
 10
353.4900743487449
 20
240.0868543370336
 30
0
 10
353.3912266701899
 20
240.1070610836305
 30
0
  0
SPLINE
  5
7E
100
AcDbEntity
  8
0
  6
CONTINUOUS
 62
  255
370
   -3
100
AcDbSpline
210
0
220
0
230
0
 70
   11
 71
    3
 72
   71
 73
   67
 74
    0
 42
1e-07
 43
1e-07
 40
0
 40
0
 40
0
 40
0
 40
0.0249154988546502
 40
0.0249154988546502
 40
0.0249154988546502
 40
0.0514473952430896
 40
0.0514473952430896
 40
0.0514473952430896
 40
0.0780910618303329
 40
0.0780910618303329
 40
0.0780910618303329
 40
0.1096543678726288
 40
0.1096543678726288
 40
0.1096543678726288
 40
0.1435790727707335
 40
0.1435790727707335
 40
0.1435790727707335
 40
0.1773849875610086
 40
0.1773849875610086
 40
0.1773849875610086
 40
0.2039601921860667
 40
0.2039601921860667
 40
0.2039601921860667
 40
0.2082277052556973
 40
0.2082277052556973
 40
0.2082277052556973
 40
0.2125079984710584
 40
0.2125079984710584
 40
0.2125079984710584
 40
0.2169518774077575
 40
0.2169518774077575
 40
0.2169518774077575
 40
0.3274360841398333
 40
0.3274360841398333
 40
0.3274360841398333
 40
0.3477148672147899
 40
0.3477148672147899
 40
0.3477148672147899
 40
0.3923646513947699
 40
0.3923646513947699
 40
0.3923646513947699
 40
0.4572125512842822
 40
0.4572125512842822
 40
0.4572125512842822
 40
0.5273297352786263
 40
0.5273297352786263
 40
0.5273297352786263
 40
0.5871527179903194
 40
0.5871527179903194
 40
0.5871527179903194
 40
0.6366726528123275
 40
0.6366726528123275
 40
0.6366726528123275
 40
0.7076183570218345
 40
0.7076183570218345
 40
0.7076183570218345
 40
0.7858802239217433
 40
0.7858802239217433
 40
0.7858802239217433
 40
0.8524760013412738
 40
0.8524760013412738
 40
0.8524760013412738
 40
0.8896182083854686
 40
0.8896182083854686
 40
0.8896182083854686
 40
1
 40
1
 40
1
 40
1
 10
354.7829340236956
 20
232.7750884248773
 30
0
 10
354.7821457121493
 20
232.5550569309609
 30
0
 10
354.7553888228961
 20
232.3302846118931
 30
0
 10
354.6825008169664
 20
232.1226748376968
 30
0
 10
354.6048841883543
 20
231.9015963415233
 30
0
 10
354.4813542082389
 20
231.6923193046055
 30
0
 10
354.3261891531116
 20
231.5167520862109
 30
0
 10
354.1703704383738
 20
231.3404452605673
 30
0
 10
353.9766839385565
 20
231.1916129359014
 30
0
 10
353.7654207069257
 20
231.0880203898761
 30
0
 10
353.5151486201763
 20
230.965299921836
 30
0
 10
353.227593673475
 20
230.9018236093713
 30
0
 10
352.9489111151659
 20
230.9075211857179
 30
0
 10
352.6493790085412
 20
230.9136450244545
 30
0
 10
352.3431530840527
 20
231.000369719436
 30
0
 10
352.0833146105787
 20
231.1495037262975
 30
0
 10
351.8243859826104
 20
231.2981155283291
 30
0
 10
351.5957289833655
 20
231.5174388802762
 30
0
 10
351.438808778263
 20
231.7714183111661
 30
0
 10
351.3154520643188
 20
231.9710743591781
 30
0
 10
351.2308113238742
 20
232.2000151263397
 30
0
 10
351.195137864688
 20
232.4319780990155
 30
0
 10
351.1894093310619
 20
232.4692272954574
 30
0
 10
351.1849576403864
 20
232.5066872260091
 30
0
 10
351.1815497966521
 20
232.5442199495203
 30
0
 10
351.178131747269
 20
232.5818650742514
 30
0
 10
351.1757606397646
 20
232.6196140747487
 30
0
 10
351.1742154399628
 20
232.6573824588177
 30
0
 10
351.1726111851824
 20
232.6965942880062
 30
0
 10
351.1719451554832
 20
232.7358478429688
 30
0
 10
351.1718368362148
 20
232.7750882002898
 30
0
 10
350.1962350410528
 20
232.7750882002898
 30
0
 10
349.2206332458908
 20
232.7750882002898
 30
0
 10
348.245031450666
 20
232.7750882132195
 30
0
 10
348.2458285914586
 20
232.596023514965
 30
0
 10
348.2475604075912
 20
232.4164052712873
 30
0
 10
348.2661149616994
 20
232.2383026881609
 30
0
 10
348.3069683419749
 20
231.8461567754059
 30
0
 10
348.3974803791308
 20
231.4561424064331
 30
0
 10
348.5337710474637
 20
231.0861798822556
 30
0
 10
348.7317151983313
 20
230.5488582989299
 30
0
 10
349.0358543363297
 20
230.0416053005319
 30
0
 10
349.4117083768861
 20
229.6095982277104
 30
0
 10
349.8181028316272
 20
229.1424879671853
 30
0
 10
350.3292136959158
 20
228.7521913012994
 30
0
 10
350.8837452543711
 20
228.4767948615817
 30
0
 10
351.3568636819057
 20
228.2418305416595
 30
0
 10
351.8782085346951
 20
228.0876067484082
 30
0
 10
352.4027387333396
 20
228.0250180208347
 30
0
 10
352.8369314143404
 20
227.9732086731635
 30
0
 10
353.2824229391687
 20
227.9777398095386
 30
0
 10
353.7143953634802
 20
228.04561703234
 30
0
 10
354.3332691150716
 20
228.1428626646038
 30
0
 10
354.944451490548
 20
228.3699425359929
 30
0
 10
355.4751180038205
 20
228.7028907077774
 30
0
 10
356.0605086556254
 20
229.0701736292044
 30
0
 10
356.5734228792321
 20
229.5806351302912
 30
0
 10
356.9495289701728
 20
230.1603964328545
 30
0
 10
357.269570882161
 20
230.6537357332233
 30
0
 10
357.4952831759807
 20
231.2193032690022
 30
0
 10
357.611003725759
 20
231.7958613710843
 30
0
 10
357.6755441033276
 20
232.117422905919
 30
0
 10
357.7069819432298
 20
232.4471136907273
 30
0
 10
357.7070263573826
 20
232.7750882002898
 30
0
 10
356.7323289125521
 20
232.7750882002898
 30
0
 10
355.7576314677215
 20
232.7750882002898
 30
0
 10
354.782934022891
 20
232.7750882002898
 30
0
  0
SPLINE
  5
7F
100
AcDbEntity
  8
0
  6
CONTINUOUS
 62
  255
370
   -3
100
AcDbSpline
210
0
220
0
230
0
 70
   11
 71
    3
 72
   71
 73
   67
 74
    0
 42
1e-07
 43
1e-07
 40
0
 40
0
 40
0
 40
0
 40
0.0779663489067787
 40
0.0779663489067787
 40
0.0779663489067787
 40
0.1351361061592741
 40
0.1351361061592741
 40
0.1351361061592741
 40
0.1478049275695237
 40
0.1478049275695237
 40
0.1478049275695237
 40
0.2135600338563244
 40
0.2135600338563244
 40
0.2135600338563244
 40
0.2232398844386291
 40
0.2232398844386291
 40
0.2232398844386291
 40
0.2735204297111811
 40
0.2735204297111811
 40
0.2735204297111811
 40
0.3322840860586316
 40
0.3322840860586316
 40
0.3322840860586316
 40
0.3763218388699611
 40
0.3763218388699611
 40
0.3763218388699611
 40
0.3973752123017099
 40
0.3973752123017099
 40
0.3973752123017099
 40
0.4627163165117202
 40
0.4627163165117202
 40
0.4627163165117202
 40
0.4732155153465041
 40
0.4732155153465041
 40
0.4732155153465041
 40
0.529958173084521
 40
0.529958173084521
 40
0.529958173084521
 40
0.5413837991371989
 40
0.5413837991371989
 40
0.5413837991371989
 40
0.6078938643730186
 40
0.6078938643730186
 40
0.6078938643730186
 40
0.631438652171013
 40
0.631438652171013
 40
0.631438652171013
 40
0.6837348984879821
 40
0.6837348984879821
 40
0.6837348984879821
 40
0.7815523602746223
 40
0.7815523602746223
 40
0.7815523602746223
 40
0.843035544814289
 40
0.843035544814289
 40
0.843035544814289
 40
0.8677935919355555
 40
0.8677935919355555
 40
0.8677935919355555
 40
0.9331475606702099
 40
0.9331475606702099
 40
0.9331475606702099
 40
0.9835563959731392
 40
0.9835563959731392
 40
0.9835563959731392
 40
1
 40
1
 40
1
 40
1
 10
363.9747883072418
 20
240.1070610836311
 30
0
 10
362.739232551039
 20
240.1070610836311
 30
0
 10
361.5037224986079
 20
240.1070610836311
 30
0
 10
360.2681667424053
 20
240.1070610836311
 30
0
 10
360.2687151876622
 20
239.2010752230406
 30
0
 10
360.2692179291476
 20
238.2950436586786
 30
0
 10
360.269812078176
 20
237.3890120943167
 30
0
 10
360.2699034857188
 20
237.1882354265281
 30
0
 10
360.2699948932616
 20
237.1880983152139
 30
0
 10
360.4662011839095
 20
237.1880526114425
 30
0
 10
361.4845726183885
 20
237.1880069076711
 30
0
 10
362.5028983490963
 20
237.1878697963569
 30
0
 10
363.5212240798039
 20
237.1881440189853
 30
0
 10
363.6711324500171
 20
237.1881897227567
 30
0
 10
363.818527112803
 20
237.178317708133
 30
0
 10
363.9666987397027
 20
237.1459594379771
 30
0
 10
364.7363502501879
 20
236.9778609667441
 30
0
 10
365.3589270242869
 20
236.2278620779639
 30
0
 10
365.3635431051989
 20
235.4398376513735
 30
0
 10
365.3688904464533
 20
234.5188609537616
 30
0
 10
365.3799507591338
 20
233.5975643297499
 30
0
 10
365.359841099715
 20
232.6769075585378
 30
0
 10
365.3447588551508
 20
231.9869634253857
 30
0
 10
365.0041743506299
 20
231.4690482878075
 30
0
 10
364.4064147244043
 20
231.1259957796306
 30
0
 10
364.1206290417999
 20
230.9620106478241
 30
0
 10
363.8054101304094
 20
230.9009504092251
 30
0
 10
363.4784910535389
 20
230.9005847790539
 30
0
 10
362.4638673283151
 20
230.8993964809973
 30
0
 10
361.4492893068628
 20
230.9002191488826
 30
0
 10
360.4347112854105
 20
230.900036333797
 30
0
 10
360.2716859328037
 20
230.900036333797
 30
0
 10
360.2699491894902
 20
230.8986652206548
 30
0
 10
360.2699034857188
 20
230.7393418735318
 30
0
 10
360.2696749668617
 20
229.8782828202339
 30
0
 10
360.2696749668617
 20
229.017223766936
 30
0
 10
360.2698577819475
 20
228.156073306095
 30
0
 10
360.2699034857188
 20
227.982673197379
 30
0
 10
360.2740625289167
 20
227.9784684504096
 30
0
 10
360.4444918924915
 20
227.9783770428667
 30
0
 10
361.4365836584117
 20
227.9781942277812
 30
0
 10
362.428766831875
 20
227.9738980732689
 30
0
 10
363.4208128940239
 20
227.9806622314371
 30
0
 10
363.7720006735112
 20
227.9830388275503
 30
0
 10
364.1238283057982
 20
228.0047938227397
 30
0
 10
364.4694859289454
 20
228.0776456343615
 30
0
 10
365.2372635848027
 20
228.2393455775977
 30
0
 10
365.9323265403523
 20
228.556346936073
 30
0
 10
366.537215954917
 20
229.059728274344
 30
0
 10
367.6685214085415
 20
230.0014087804029
 30
0
 10
368.247085450776
 20
231.2166720621011
 30
0
 10
368.2829172075588
 20
232.6811123055073
 30
0
 10
368.3054491668622
 20
233.6015862616336
 30
0
 10
368.2916923316688
 20
234.523065700731
 30
0
 10
368.2847910621863
 20
235.4439966945715
 30
0
 10
368.2820031321306
 20
235.8148370957636
 30
0
 10
368.2328715778686
 20
236.1831637895284
 30
0
 10
368.1386304012286
 20
236.5429438780401
 30
0
 10
367.8897276621488
 20
237.4926225440952
 30
0
 10
367.4002859741569
 20
238.2945866209647
 30
0
 10
366.6599762849149
 20
238.9426660995084
 30
0
 10
366.0889076611909
 20
239.4424825436096
 30
0
 10
365.4361663979637
 20
239.7838897160159
 30
0
 10
364.7017524952332
 20
239.973011922096
 30
0
 10
364.4621733255204
 20
240.0346663097233
 30
0
 10
364.2163327391249
 20
240.058249455769
 30
0
 10
363.9747883072418
 20
240.1070610836311
 30
0
  0
SPLINE
  5
80
100
AcDbEntity
  8
0
  6
CONTINUOUS
 62
  255
370
   -3
100
AcDbSpline
210
0
220
0
230
0
 70
   11
 71
    3
 72
   89
 73
   85
 74
    0
 42
1e-07
 43
1e-07
 40
0
 40
0
 40
0
 40
0
 40
0.0792365922004859
 40
0.0792365922004859
 40
0.0792365922004859
 40
0.1305032249800642
 40
0.1305032249800642
 40
0.1305032249800642
 40
0.1418644888642732
 40
0.1418644888642732
 40
0.1418644888642732
 40
0.2118194159717775
 40
0.2118194159717775
 40
0.2118194159717775
 40
0.2256057506458701
 40
0.2256057506458701
 40
0.2256057506458701
 40
0.2595234464840558
 40
0.2595234464840558
 40
0.2595234464840558
 40
0.2865700715223597
 40
0.2865700715223597
 40
0.2865700715223597
 40
0.3027026935221367
 40
0.3027026935221367
 40
0.3027026935221367
 40
0.3740141955788207
 40
0.3740141955788207
 40
0.3740141955788207
 40
0.3841573586625491
 40
0.3841573586625491
 40
0.3841573586625491
 40
0.4362568410873484
 40
0.4362568410873484
 40
0.4362568410873484
 40
0.4471364719244966
 40
0.4471364719244966
 40
0.4471364719244966
 40
0.5184930001274254
 40
0.5184930001274254
 40
0.5184930001274254
 40
0.5399362324112346
 40
0.5399362324112346
 40
0.5399362324112346
 40
0.5636615376559566
 40
0.5636615376559566
 40
0.5636615376559566
 40
0.6001179186455018
 40
0.6001179186455018
 40
0.6001179186455018
 40
0.6088073703577489
 40
0.6088073703577489
 40
0.6088073703577489
 40
0.6636509126486707
 40
0.6636509126486707
 40
0.6636509126486707
 40
0.6706744813667771
 40
0.6706744813667771
 40
0.6706744813667771
 40
0.6963824148647423
 40
0.6963824148647423
 40
0.6963824148647423
 40
0.7228298955948674
 40
0.7228298955948674
 40
0.7228298955948674
 40
0.7815646910614941
 40
0.7815646910614941
 40
0.7815646910614941
 40
0.7880827441797852
 40
0.7880827441797852
 40
0.7880827441797852
 40
0.8433262073638906
 40
0.8433262073638906
 40
0.8433262073638906
 40
0.8885296219903166
 40
0.8885296219903166
 40
0.8885296219903166
 40
0.9476186442097189
 40
0.9476186442097189
 40
0.9476186442097189
 40
0.9857884898341596
 40
0.9857884898341596
 40
0.9857884898341596
 40
1
 40
1
 40
1
 40
1
 10
374.1735848965964
 20
240.1070610836311
 30
0
 10
372.7733127482448
 20
240.1070610836311
 30
0
 10
371.3730405998933
 20
240.1070610836311
 30
0
 10
369.9727684515418
 20
240.1070610836311
 30
0
 10
369.9724028213704
 20
239.2010752230406
 30
0
 10
369.9719914874278
 20
238.29508936245
 30
0
 10
369.9717629685707
 20
237.3891035018596
 30
0
 10
369.9716715610279
 20
237.1883268340709
 30
0
 10
369.9719000798851
 20
237.1880983152139
 30
0
 10
370.1682891856186
 20
237.1880983152139
 30
0
 10
371.3775195694911
 20
237.1879612038996
 30
0
 10
372.586795657135
 20
237.1863158681289
 30
0
 10
373.7959803372361
 20
237.1892409094991
 30
0
 10
374.0342798013496
 20
237.1898350585273
 30
0
 10
374.2463453006755
 20
237.1212794014176
 30
0
 10
374.4357417293839
 20
236.9831169004559
 30
0
 10
374.9016459751015
 20
236.6431265449631
 30
0
 10
375.0799820911295
 20
236.1676702110216
 30
0
 10
375.0395799572063
 20
235.6104041262624
 30
0
 10
375.0074045021361
 20
235.1660263568772
 30
0
 10
374.8196534091982
 20
234.7910726162586
 30
0
 10
374.4509153814909
 20
234.5203234744466
 30
0
 10
374.2309888334829
 20
234.3588063462961
 30
0
 10
373.9830915773742
 20
234.2929929154707
 30
0
 10
373.7137592524759
 20
234.2929929154707
 30
0
 10
372.5232217111085
 20
234.2932671380993
 30
0
 10
371.3327298735128
 20
234.2931757305565
 30
0
 10
370.1422380359169
 20
234.2929929154707
 30
0
 10
369.9729055628558
 20
234.2929929154707
 30
0
 10
369.9718086723422
 20
234.2920788400427
 30
0
 10
369.9718086723422
 20
234.1258999272088
 30
0
 10
369.9716258572566
 20
233.2723362924215
 30
0
 10
369.9716258572566
 20
232.4187726576342
 30
0
 10
369.9717629685707
 20
231.5652090228468
 30
0
 10
369.9718086723422
 20
231.3869643143616
 30
0
 10
369.9720828949707
 20
231.3866900917331
 30
0
 10
370.1530241259689
 20
231.3866900917331
 30
0
 10
371.3397682543093
 20
231.3865986841902
 30
0
 10
372.5265580864213
 20
231.3876041671612
 30
0
 10
373.7133022147619
 20
231.3860502389335
 30
0
 10
374.0699287430465
 20
231.3855932012195
 30
0
 10
374.37906905284
 20
231.2669462106482
 30
0
 10
374.6287944598049
 20
231.0038753024325
 30
0
 10
374.9050280541856
 20
230.7127422785732
 30
0
 10
375.0419565533194
 20
230.3643881329131
 30
0
 10
375.0457956701175
 20
229.9673137669336
 30
0
 10
375.0517371604004
 20
229.3571684186573
 30
0
 10
375.0472581908026
 20
228.7468402552952
 30
0
 10
375.0478066360594
 20
228.1366949070188
 30
0
 10
375.0478980436022
 20
227.9912655064033
 30
0
 10
375.0589583562825
 20
227.978742673038
 30
0
 10
375.1971665610158
 20
227.9786512654951
 30
0
 10
376.0694687420797
 20
227.9781028202383
 30
0
 10
376.9419080344579
 20
227.9798395635517
 30
0
 10
377.814118807979
 20
227.9765488920105
 30
0
 10
377.9258188252965
 20
227.9760918542964
 30
0
 10
377.9532410881404
 20
228.0198760673038
 30
0
 10
377.9521441976266
 20
228.1231665906825
 30
0
 10
377.9475738204861
 20
228.5012281877568
 30
0
 10
377.953972348483
 20
228.8793811923741
 30
0
 10
377.9492191562567
 20
229.2574427894482
 30
0
 10
377.9444659640304
 20
229.6463818841174
 30
0
 10
377.9711569665316
 20
230.0359608315861
 30
0
 10
377.928926681752
 20
230.4243514809984
 30
0
 10
377.8349597277403
 20
231.2868730549814
 30
0
 10
377.5196037050358
 20
232.0597238294649
 30
0
 10
376.9856008399225
 20
232.742355359192
 30
0
 10
376.9263687521797
 20
232.8181322121839
 30
0
 10
376.9230780806384
 20
232.8679493230169
 30
0
 10
376.9839555041518
 20
232.9443660288086
 30
0
 10
377.4998596757882
 20
233.5920798771811
 30
0
 10
377.8033327179272
 20
234.3297387476816
 30
0
 10
377.9124733240457
 20
235.1501214444278
 30
0
 10
378.0016870858312
 20
235.8214184388461
 30
0
 10
377.9464769299721
 20
236.4799183772705
 30
0
 10
377.7389818077868
 20
237.1232446635881
 30
0
 10
377.4680498508893
 20
237.9642854650101
 30
0
 10
376.9921821830049
 20
238.6691290276407
 30
0
 10
376.3009126404821
 20
239.2228759220015
 30
0
 10
375.8543867938409
 20
239.5805993408
 30
0
 10
375.3543875346541
 20
239.8347580135914
 30
0
 10
374.7995437497796
 20
239.9820612688345
 30
0
 10
374.5929627030221
 20
240.0369057945222
 30
0
 10
374.3801659433537
 20
240.0557814521131
 30
0
 10
374.1735848965964
 20
240.1070610836311
 30
0
  0
SPLINE
  5
81
100
AcDbEntity
  8
0
  6
CONTINUOUS
 62
  255
370
   -3
100
AcDbSpline
210
0
220
0
230
0
 70
   11
 71
    3
 72
   71
 73
   67
 74
    0
 42
1e-07
 43
1e-07
 40
0
 40
0
 40
0
 40
0
 40
0.0202780849681497
 40
0.0202780849681497
 40
0.0202780849681497
 40
0.0649263320579609
 40
0.0649263320579609
 40
0.0649263320579609
 40
0.1297719995275263
 40
0.1297719995275263
 40
0.1297719995275263
 40
0.1998867697043187
 40
0.1998867697043187
 40
0.1998867697043187
 40
0.2597076929812512
 40
0.2597076929812512
 40
0.2597076929812512
 40
0.3092259230558439
 40
0.3092259230558439
 40
0.3092259230558439
 40
0.3801691849255936
 40
0.3801691849255936
 40
0.3801691849255936
 40
0.4584283576233424
 40
0.4584283576233424
 40
0.4584283576233424
 40
0.5250218424514073
 40
0.5250218424514073
 40
0.5250218424514073
 40
0.5621627708573712
 40
0.5621627708573712
 40
0.5621627708573712
 40
0.6725407625259658
 40
0.6725407625259658
 40
0.6725407625259658
 40
0.6974580231805491
 40
0.6974580231805491
 40
0.6974580231805491
 40
0.7239917956660119
 40
0.7239917956660119
 40
0.7239917956660119
 40
0.7506373462536526
 40
0.7506373462536526
 40
0.7506373462536526
 40
0.7822028841689724
 40
0.7822028841689724
 40
0.7822028841689724
 40
0.8161299879169829
 40
0.8161299879169829
 40
0.8161299879169829
 40
0.8499382931573993
 40
0.8499382931573993
 40
0.8499382931573993
 40
0.8765153769418361
 40
0.8765153769418361
 40
0.8765153769418361
 40
0.8807831917715915
 40
0.8807831917715915
 40
0.8807831917715915
 40
0.8850637876507811
 40
0.8850637876507811
 40
0.8850637876507811
 40
0.889507980818626
 40
0.889507980818626
 40
0.889507980818626
 40
1
 40
1
 40
1
 40
1
 10
379.6755914506661
 20
232.7750882132195
 30
0
 10
379.6763885914586
 20
232.596023514965
 30
0
 10
379.6781204075913
 20
232.4164052712873
 30
0
 10
379.6966749616995
 20
232.2383026881609
 30
0
 10
379.737528341975
 20
231.8461567754059
 30
0
 10
379.8280403791308
 20
231.4561424064331
 30
0
 10
379.9643310474637
 20
231.0861798822556
 30
0
 10
380.1622751983313
 20
230.5488582989299
 30
0
 10
380.4664143363297
 20
230.0416053005319
 30
0
 10
380.842268376886
 20
229.6095982277104
 30
0
 10
381.2486628316271
 20
229.1424879671853
 30
0
 10
381.7597736959158
 20
228.7521913012994
 30
0
 10
382.3143052543712
 20
228.4767948615818
 30
0
 10
382.7874236819059
 20
228.2418305416597
 30
0
 10
383.3087685346951
 20
228.0876067484083
 30
0
 10
383.8332987333396
 20
228.0250180208347
 30
0
 10
384.2674914143404
 20
227.9732086731635
 30
0
 10
384.7129829391687
 20
227.9777398095386
 30
0
 10
385.1449553634801
 20
228.04561703234
 30
0
 10
385.7638291150716
 20
228.1428626646038
 30
0
 10
386.375011490548
 20
228.3699425359931
 30
0
 10
386.9056780038204
 20
228.7028907077775
 30
0
 10
387.4910686556253
 20
229.0701736292044
 30
0
 10
388.0039828792322
 20
229.5806351302912
 30
0
 10
388.3800889701728
 20
230.1603964328545
 30
0
 10
388.700130882161
 20
230.6537357332233
 30
0
 10
388.9258431759808
 20
231.2193032690022
 30
0
 10
389.0415637257589
 20
231.7958613710843
 30
0
 10
389.1061041033275
 20
232.117422905919
 30
0
 10
389.1375419432298
 20
232.4471136907273
 30
0
 10
389.1375863573826
 20
232.7750882002898
 30
0
 10
388.1628889125521
 20
232.7750882002898
 30
0
 10
387.1881914677215
 20
232.7750882002898
 30
0
 10
386.2134940236957
 20
232.7750884248773
 30
0
 10
386.2127057121494
 20
232.5550569309609
 30
0
 10
386.1859488228961
 20
232.3302846118931
 30
0
 10
386.1130608169665
 20
232.1226748376968
 30
0
 10
386.0354441883543
 20
231.9015963415233
 30
0
 10
385.911914208239
 20
231.6923193046055
 30
0
 10
385.7567491531116
 20
231.5167520862109
 30
0
 10
385.6009304383737
 20
231.3404452605673
 30
0
 10
385.4072439385565
 20
231.1916129359014
 30
0
 10
385.1959807069256
 20
231.0880203898761
 30
0
 10
384.9457086201762
 20
230.965299921836
 30
0
 10
384.658153673475
 20
230.9018236093713
 30
0
 10
384.3794711151659
 20
230.9075211857179
 30
0
 10
384.0799390085413
 20
230.9136450244545
 30
0
 10
383.7737130840528
 20
231.000369719436
 30
0
 10
383.5138746105788
 20
231.1495037262975
 30
0
 10
383.2549459826105
 20
231.2981155283291
 30
0
 10
383.0262889833655
 20
231.5174388802762
 30
0
 10
382.8693687782629
 20
231.7714183111661
 30
0
 10
382.7460120643187
 20
231.9710743591781
 30
0
 10
382.6613713238742
 20
232.2000151263397
 30
0
 10
382.625697864688
 20
232.4319780990155
 30
0
 10
382.6199693310618
 20
232.4692272954573
 30
0
 10
382.6155176403864
 20
232.5066872260091
 30
0
 10
382.6121097966521
 20
232.5442199495203
 30
0
 10
382.6086917472691
 20
232.5818650742514
 30
0
 10
382.6063206397646
 20
232.6196140747487
 30
0
 10
382.6047754399628
 20
232.6573824588177
 30
0
 10
382.6031711851824
 20
232.6965942880062
 30
0
 10
382.6025051554831
 20
232.7358478429688
 30
0
 10
382.6023968362148
 20
232.7750882002898
 30
0
 10
381.6267950410528
 20
232.7750882002898
 30
0
 10
380.6511932458907
 20
232.7750882002898
 30
0
 10
379.6755914507287
 20
232.7750882002898
 30
0
  0
SPLINE
  5
82
100
AcDbEntity
  8
0
  6
CONTINUOUS
 62
  255
370
   -3
100
AcDbSpline
210
0
220
0
230
0
 70
   11
 71
    3
 72
   35
 73
   31
 74
    0
 42
1e-07
 43
1e-07
 40
0
 40
0
 40
0
 40
0
 40
0.0960206016267463
 40
0.0960206016267463
 40
0.0960206016267463
 40
0.2673024222382769
 40
0.2673024222382769
 40
0.2673024222382769
 40
0.489164108842438
 40
0.489164108842438
 40
0.489164108842438
 40
0.505456386095638
 40
0.505456386095638
 40
0.505456386095638
 40
0.5460234391065609
 40
0.5460234391065609
 40
0.5460234391065609
 40
0.5917886001645701
 40
0.5917886001645701
 40
0.5917886001645701
 40
0.605147380827794
 40
0.605147380827794
 40
0.605147380827794
 40
0.6081029452017757
 40
0.6081029452017757
 40
0.6081029452017757
 40
0.9944503432626529
 40
0.9944503432626529
 40
0.9944503432626529
 40
1
 40
1
 40
1
 40
1
 10
393.8747897103852
 20
240.1070610836311
 30
0
 10
392.9012993794274
 20
240.1070610836311
 30
0
 10
391.9279918635551
 20
240.1070610836311
 30
0
 10
390.9545015325971
 20
240.1070610836311
 30
0
 10
390.9546843476828
 20
238.3705462890421
 30
0
 10
390.9548671627685
 20
236.6340314944533
 30
0
 10
390.9550499778541
 20
234.8975166998643
 30
0
 10
390.9552327929397
 20
232.6482055900946
 30
0
 10
390.9550499778541
 20
230.3990315916392
 30
0
 10
390.9552327929397
 20
228.149766185641
 30
0
 10
390.9552327929397
 20
227.984592755778
 30
0
 10
390.9612656907654
 20
227.9785598579523
 30
0
 10
391.1250680074862
 20
227.9784684504096
 30
0
 10
391.5329284635175
 20
227.9781028202383
 30
0
 10
391.940788919549
 20
227.978285635324
 30
0
 10
392.348832190666
 20
227.978285635324
 30
0
 10
392.8091605762718
 20
227.978285635324
 30
0
 10
393.2694889618779
 20
227.9778285976099
 30
0
 10
393.7298173474839
 20
227.9786512654951
 30
0
 10
393.8641864354188
 20
227.9789254881236
 30
0
 10
393.8757037858134
 20
227.9922709893743
 30
0
 10
393.877349121584
 20
228.1273713376518
 30
0
 10
393.8777147517554
 20
228.1572616041518
 30
0
 10
393.877349121584
 20
228.1872432781943
 30
0
 10
393.877349121584
 20
228.2171335446941
 30
0
 10
393.877349121584
 20
232.1243489622336
 30
0
 10
393.877349121584
 20
236.0315643797731
 30
0
 10
393.877349121584
 20
239.9387340935411
 30
0
 10
393.877349121584
 20
239.9948583248283
 30
0
 10
393.8757037858134
 20
240.0509825561155
 30
0
 10
393.8747897103852
 20
240.1070610836311
 30
0
  0
SPLINE
  5
83
100
AcDbEntity
  8
0
  6
CONTINUOUS
 62
  255
370
   -3
100
AcDbSpline
210
0
220
0
230
0
 70
   11
 71
    3
 72
   77
 73
   73
 74
    0
 42
1e-07
 43
1e-07
 40
0
 40
0
 40
0
 40
0
 40
0.0673971957956756
 40
0.0673971957956756
 40
0.0673971957956756
 40
0.0779031237574369
 40
0.0779031237574369
 40
0.0779031237574369
 40
0.1272754278268955
 40
0.1272754278268955
 40
0.1272754278268955
 40
0.2018971443151316
 40
0.2018971443151316
 40
0.2018971443151316
 40
0.2173737817864943
 40
0.2173737817864943
 40
0.2173737817864943
 40
0.2195450277201742
 40
0.2195450277201742
 40
0.2195450277201742
 40
0.2997083256417573
 40
0.2997083256417573
 40
0.2997083256417573
 40
0.3595742585942774
 40
0.3595742585942774
 40
0.3595742585942774
 40
0.3704687423949364
 40
0.3704687423949364
 40
0.3704687423949364
 40
0.4369650959641209
 40
0.4369650959641209
 40
0.4369650959641209
 40
0.4463771778729373
 40
0.4463771778729373
 40
0.4463771778729373
 40
0.4960261625065432
 40
0.4960261625065432
 40
0.4960261625065432
 40
0.5557940290623156
 40
0.5557940290623156
 40
0.5557940290623156
 40
0.5846273685323976
 40
0.5846273685323976
 40
0.5846273685323976
 40
0.6197295800512705
 40
0.6197295800512705
 40
0.6197295800512705
 40
0.6860297703622256
 40
0.6860297703622256
 40
0.6860297703622256
 40
0.6970877372933341
 40
0.6970877372933341
 40
0.6970877372933341
 40
0.7547655063070495
 40
0.7547655063070495
 40
0.7547655063070495
 40
0.7656336631745562
 40
0.7656336631745562
 40
0.7656336631745562
 40
0.8414033264353987
 40
0.8414033264353987
 40
0.8414033264353987
 40
0.8756473320628081
 40
0.8756473320628081
 40
0.8756473320628081
 40
0.9351965353699038
 40
0.9351965353699038
 40
0.9351965353699038
 40
0.9882504476125604
 40
0.9882504476125604
 40
0.9882504476125604
 40
1
 40
1
 40
1
 40
1
 10
403.5793457157502
 20
232.5142021323308
 30
0
 10
403.5793457157502
 20
233.5474729962884
 30
0
 10
403.5793457157502
 20
234.5808809715601
 30
0
 10
403.5793457157502
 20
235.614197539289
 30
0
 10
403.5435139589676
 20
235.7712356978417
 30
0
 10
403.5466218154233
 20
235.9327071222208
 30
0
 10
403.522307409035
 20
236.0916648391726
 30
0
 10
403.40841361069
 20
236.8387386865828
 30
0
 10
403.1303518654532
 20
237.5175768032831
 30
0
 10
402.6890362487522
 20
238.1282705968164
 30
0
 10
402.0221268163888
 20
239.051349667913
 30
0
 10
401.133645500247
 20
239.657838714477
 30
0
 10
400.0362065412348
 20
239.9589808642742
 30
0
 10
399.8086017596307
 20
240.0214579197869
 30
0
 10
399.5762437858
 20
240.059711976454
 30
0
 10
399.3416920309419
 20
240.0868143128981
 30
0
 10
399.3087853155294
 20
240.0906077259248
 30
0
 10
399.2764270453735
 20
240.1001598141488
 30
0
 10
399.2438859601321
 20
240.1070610836311
 30
0
 10
398.0157342148975
 20
240.1070610836311
 30
0
 10
396.7877652847483
 20
240.1070610836311
 30
0
 10
395.5596135395136
 20
240.1070610836311
 30
0
 10
395.5590650942566
 20
239.1898777990461
 30
0
 10
395.5581510188285
 20
238.272694514461
 30
0
 10
395.5577853886572
 20
237.3555112298758
 30
0
 10
395.5576025735716
 20
237.1886010566994
 30
0
 10
395.5581510188285
 20
237.1881440189853
 30
0
 10
395.7274377881182
 20
237.1881440189853
 30
0
 10
396.7607086520757
 20
237.1879612038996
 30
0
 10
397.7939795160333
 20
237.1877326850426
 30
0
 10
398.8272503799909
 20
237.1882354265281
 30
0
 10
398.9735024484916
 20
237.1883268340709
 30
0
 10
399.1170122907078
 20
237.1770837063049
 30
0
 10
399.2612533932667
 20
237.1449996587775
 30
0
 10
400.0221297796417
 20
236.9757585932594
 30
0
 10
400.6316352751183
 20
236.2386481680159
 30
0
 10
400.6358400220877
 20
235.4611813126202
 30
0
 10
400.6407760293997
 20
234.5252594817585
 30
0
 10
400.6393135087147
 20
233.5893376508968
 30
0
 10
400.6360228371734
 20
232.6533244124921
 30
0
 10
400.6343775014028
 20
232.2017711509962
 30
0
 10
400.4590578342874
 20
231.8145687996405
 30
0
 10
400.156316052491
 20
231.4875126114559
 30
0
 10
399.7877608398692
 20
231.0893413549625
 30
0
 10
399.3221308167801
 20
230.9023215223673
 30
0
 10
398.7830091292693
 20
230.9008590016824
 30
0
 10
397.7647291023331
 20
230.8982081829407
 30
0
 10
396.7464490753967
 20
230.9002191488826
 30
0
 10
395.7281690484605
 20
230.900036333797
 30
0
 10
395.558333833914
 20
230.900036333797
 30
0
 10
395.5577853886572
 20
230.8997621111686
 30
0
 10
395.5577853886572
 20
230.7346800888484
 30
0
 10
395.5576025735716
 20
229.8736210355505
 30
0
 10
395.5576025735716
 20
229.0125619822524
 30
0
 10
395.5577853886572
 20
228.1515029289545
 30
0
 10
395.5577853886572
 20
227.9892545404614
 30
0
 10
395.5672917731098
 20
227.9775543749814
 30
0
 10
395.7289003088031
 20
227.9788340805807
 30
0
 10
396.8555896815154
 20
227.987609204691
 30
0
 10
397.9824618693136
 20
227.9544282666498
 30
0
 10
399.1086027967689
 20
227.9976640344002
 30
0
 10
399.6175599951515
 20
228.0172252485623
 30
0
 10
400.1095153905708
 20
228.13121045445
 30
0
 10
400.5809954963999
 20
228.3217037736721
 30
0
 10
401.4009211554322
 20
228.6528733012836
 30
0
 10
402.0826386097311
 20
229.1692345106339
 30
0
 10
402.6157273994161
 20
229.8764546693776
 30
0
 10
403.0906809918723
 20
230.5065268619872
 30
0
 10
403.3963478150387
 20
231.2104563491898
 30
0
 10
403.5155432508668
 20
231.992265062869
 30
0
 10
403.5420514382827
 20
232.1653909489566
 30
0
 10
403.5583219809033
 20
232.3401621708149
 30
0
 10
403.5793457157502
 20
232.5142021323308
 30
0
  0
SPLINE
  5
84
100
AcDbEntity
  8
0
  6
CONTINUOUS
 62
  255
370
   -3
100
AcDbSpline
210
0
220
0
230
0
 70
    8
 71
    3
 72
  101
 73
   97
 74
    0
 42
1e-07
 43
1e-07
 40
0
 40
0
 40
0
 40
0
 40
0.1102219501308589
 40
0.1102219501308589
 40
0.1102219501308589
 40
0.1401741824805976
 40
0.1401741824805976
 40
0.1401741824805976
 40
0.168597717484129
 40
0.168597717484129
 40
0.168597717484129
 40
0.197624015505363
 40
0.197624015505363
 40
0.197624015505363
 40
0.229614847041067
 40
0.229614847041067
 40
0.229614847041067
 40
0.2599651216072668
 40
0.2599651216072668
 40
0.2599651216072668
 40
0.2898553768419882
 40
0.2898553768419882
 40
0.2898553768419882
 40
0.3105625321884073
 40
0.3105625321884073
 40
0.3105625321884073
 40
0.3158023136838998
 40
0.3158023136838998
 40
0.3158023136838998
 40
0.3210423521180313
 40
0.3210423521180313
 40
0.3210423521180313
 40
0.3271577515461687
 40
0.3271577515461687
 40
0.3271577515461687
 40
0.4370862681700153
 40
0.4370862681700153
 40
0.4370862681700153
 40
0.4693695937762407
 40
0.4693695937762407
 40
0.4693695937762407
 40
0.4928405308691678
 40
0.4928405308691678
 40
0.4928405308691678
 40
0.5188347909870998
 40
0.5188347909870998
 40
0.5188347909870998
 40
0.5531614390825109
 40
0.5531614390825109
 40
0.5531614390825109
 40
0.5875028359234072
 40
0.5875028359234072
 40
0.5875028359234072
 40
0.6217032749427124
 40
0.6217032749427124
 40
0.6217032749427124
 40
0.6553597500470812
 40
0.6553597500470812
 40
0.6553597500470812
 40
0.6803490854248384
 40
0.6803490854248384
 40
0.6803490854248384
 40
0.6917613208099425
 40
0.6917613208099425
 40
0.6917613208099425
 40
0.7031642771410102
 40
0.7031642771410102
 40
0.7031642771410102
 40
0.7190108106515399
 40
0.7190108106515399
 40
0.7190108106515399
 40
0.7345252388529282
 40
0.7345252388529282
 40
0.7345252388529282
 40
0.7364367182412209
 40
0.7364367182412209
 40
0.7364367182412209
 40
0.7389139684665001
 40
0.7389139684665001
 40
0.7389139684665001
 40
0.7528067639809083
 40
0.7528067639809083
 40
0.7528067639809083
 40
0.769357321263583
 40
0.769357321263583
 40
0.769357321263583
 40
0.8191415580591002
 40
0.8191415580591002
 40
0.8191415580591002
 40
0.8707993028629609
 40
0.8707993028629609
 40
0.8707993028629609
 40
0.935776212132906
 40
0.935776212132906
 40
0.935776212132906
 40
1
 40
1
 40
1
 40
1
 10
379.6753185605173
 20
235.3257277714898
 30
0
 10
380.6506453285888
 20
235.3257277714898
 30
0
 10
381.6259720966603
 20
235.3257277714898
 30
0
 10
382.6012988636763
 20
235.3257267749559
 30
0
 10
382.6015795913456
 20
235.5907665199521
 30
0
 10
382.6499416028686
 20
235.8621721030379
 30
0
 10
382.753498266667
 20
236.1061437461006
 30
0
 10
382.8517696216681
 20
236.3376636026339
 30
0
 10
383.0025996881144
 20
236.5532085972893
 30
0
 10
383.1883745986613
 20
236.7227561888209
 30
0
 10
383.3780891404215
 20
236.8958992873121
 30
0
 10
383.6122821601726
 20
237.0281092708321
 30
0
 10
383.8572638866975
 20
237.1052720441059
 30
0
 10
384.1272662527192
 20
237.1903156579635
 30
0
 10
384.4241759080405
 20
237.2168095645284
 30
0
 10
384.7038121144607
 20
237.1727949536112
 30
0
 10
384.9691079894376
 20
237.1310375043004
 30
0
 10
385.2306356851883
 20
237.0229387233449
 30
0
 10
385.4491076698525
 20
236.8667478856827
 30
0
 10
385.6642682730624
 20
236.7129244336786
 30
0
 10
385.8485963178435
 20
236.5063544031654
 30
0
 10
385.9793113754686
 20
236.276421123125
 30
0
 10
386.069867209907
 20
236.1171296044772
 30
0
 10
386.139137084909
 20
235.9429394292853
 30
0
 10
386.1779276633602
 20
235.7638600109051
 30
0
 10
386.1877433117082
 20
235.7185453838135
 30
0
 10
386.1953052538969
 20
235.6727013666039
 30
0
 10
386.2009240977721
 20
235.6266775578258
 30
0
 10
386.2065432171737
 20
235.5806514922178
 30
0
 10
386.2102349994317
 20
235.5343655256501
 30
0
 10
386.2123989708064
 20
235.4880482454395
 30
0
 10
386.2149244387917
 20
235.4339935524306
 30
0
 10
386.2149475693718
 20
235.3798350140941
 30
0
 10
386.2146139247951
 20
235.3257277714898
 30
0
 10
387.1872473674398
 20
235.3257277714898
 30
0
 10
388.1598808100845
 20
235.3257277714898
 30
0
 10
389.1325143056249
 20
235.3257258455373
 30
0
 10
389.1246709157664
 20
235.6112568866876
 30
0
 10
389.1166637653096
 20
235.8984091793274
 30
0
 10
389.0716395361645
 20
236.1804771020247
 30
0
 10
389.038905583572
 20
236.385548864157
 30
0
 10
388.9894718023073
 20
236.5884687009031
 30
0
 10
388.9262428396755
 20
236.786276783551
 30
0
 10
388.8562162320828
 20
237.0053508977812
 30
0
 10
388.7691020102078
 20
237.219451563609
 30
0
 10
388.6689160456816
 20
237.4264780493747
 30
0
 10
388.536615748124
 20
237.6998663008991
 30
0
 10
388.3789820706098
 20
237.9626264087819
 30
0
 10
388.1977887963972
 20
238.2063752594162
 30
0
 10
388.0165176709048
 20
238.4502288388825
 30
0
 10
387.810017118629
 20
238.677112011105
 30
0
 10
387.5845686545844
 20
238.880819593722
 30
0
 10
387.3600455671202
 20
239.0836910374593
 30
0
 10
387.1157639593857
 20
239.2666627789451
 30
0
 10
386.8576423332173
 20
239.4245889186203
 30
0
 10
386.6036261762864
 20
239.5800032156504
 30
0
 10
386.3335767002993
 20
239.7117949880312
 30
0
 10
386.0547107209694
 20
239.8162534835006
 30
0
 10
385.8476576810621
 20
239.8938120622955
 30
0
 10
385.6352080118531
 20
239.9599164498176
 30
0
 10
385.4185814017495
 20
240.0041793719365
 30
0
 10
385.3196514451177
 20
240.0243935504417
 30
0
 10
385.2198215948806
 20
240.0400239206107
 30
0
 10
385.1200621497807
 20
240.0556380951064
 30
0
 10
385.0203838170352
 20
240.0712395740376
 30
0
 10
384.920634348745
 20
240.0868543370336
 30
0
 10
384.8217866701909
 20
240.1070610836311
 30
0
 10
384.6815785626513
 20
240.1070610836311
 30
0
 10
384.5413704551119
 20
240.1070610836311
 30
0
 10
384.4011623475723
 20
240.1070610836311
 30
0
 10
384.2638926654536
 20
240.1070610836311
 30
0
 10
384.1234654357366
 20
240.1360794149055
 30
0
 10
383.9893533801055
 20
240.106806182023
 30
0
 10
383.9728298945647
 20
240.1031995275877
 30
0
 10
383.9564528102121
 20
240.098950875296
 30
0
 10
383.9399751955863
 20
240.0951401343081
 30
0
 10
383.9186204403146
 20
240.0902014679386
 30
0
 10
383.8968763862072
 20
240.0869480900595
 30
0
 10
383.8751154984806
 20
240.084325159719
 30
0
 10
383.753077135011
 20
240.0696153679923
 30
0
 10
383.6313383888746
 20
240.0516509156541
 30
0
 10
383.5105350231894
 20
240.0289289665713
 30
0
 10
383.3666213650894
 20
240.0018601941651
 30
0
 10
383.2239730341843
 20
239.9671029382573
 30
0
 10
383.0835831616041
 20
239.9254550919241
 30
0
 10
382.6612890635351
 20
239.8001779662985
 30
0
 10
382.2510445300497
 20
239.6179523546211
 30
0
 10
381.8789664110807
 20
239.3821886236247
 30
0
 10
381.4928860419922
 20
239.1375525011539
 30
0
 10
381.1419410431495
 20
238.8302404862972
 30
0
 10
380.8409255397906
 20
238.4863007378663
 30
0
 10
380.4622977633583
 20
238.0536813520807
 30
0
 10
380.1504679558724
 20
237.5476049742655
 30
0
 10
379.9531160835415
 20
237.0076320448226
 30
0
 10
379.7580516379382
 20
236.4739177259339
 30
0
 10
379.6839536410669
 20
235.8938654516389
 30
0
 10
379.6753185217579
 20
235.3256871813398
 30
0
  0
ENDBLK
  5
5C
330
5A
100
AcDbEntity
  8
0
100
AcDbBlockEnd
  0
ENDSEC
  0
SECTION
  2
ENTITIES
  0
ARC
  5
85
100
AcDbEntity
  8
0
  6
ByLayer
 62
  256
370
   -1
100
AcDbCircle
 10
59.50107355275821
 20
-217.0000794653697
 40
5
100
AcDbArc
 50
0.004623376362475485
 51
180
  0
CIRCLE
  5
86
100
AcDbEntity
  8
0
  6
ByLayer
 62
  256
370
   -1
100
AcDbCircle
 10
8.40107355275822
 20
-190.2000794653697
 40
1.5
  0
CIRCLE
  5
87
100
AcDbEntity
  8
0
  6
ByLayer
 62
  256
370
   -1
100
AcDbCircle
 10
8.40107355275822
 20
-101.8000794653697
 40
1.5
  0
CIRCLE
  5
88
100
AcDbEntity
  8
0
  6
ByLayer
 62
  256
370
   -1
100
AcDbCircle
 10
110.6010735527582
 20
-183.2000794653697
 40
1.5
  0
CIRCLE
  5
89
100
AcDbEntity
  8
0
  6
ByLayer
 62
  256
370
   -1
100
AcDbCircle
 10
110.6010735527582
 20
-101.8000794653697
 40
1.5
  0
ARC
  5
8A
100
AcDbEntity
  8
0
  6
ByLayer
 62
  256
370
   -1
100
AcDbCircle
 10
133.0021471055165
 20
-94.00004353684228
 40
5
100
AcDbArc
 50
359.9995882009858
 51
90
  0
LWPOLYLINE
  5
8B
100
AcDbEntity
  8
0
  6
ByLayer
 62
  256
370
   -1
100
AcDbPolyline
 90
    2
 70
    0
 43
0
 10
138.0021035686252
 20
-212.0000214132227
 10
138.0010735527582
 20
-94.00007946536969
  0
ARC
  5
8C
100
AcDbEntity
  8
0
  6
ByLayer
 62
  256
370
   -1
100
AcDbCircle
 10
133.0021471055165
 20
-212.0000435368423
 40
4.999956463157718
100
AcDbArc
 50
270
 51
0
  0
ARC
  5
8D
100
AcDbEntity
  8
0
  6
ByLayer
 62
  256
370
   -1
100
AcDbCircle
 10
-14
 20
-94.00004353684228
 40
5
100
AcDbArc
 50
90
 51
180.0004117990142
  0
LWPOLYLINE
  5
8E
100
AcDbEntity
  8
0
  6
ByLayer
 62
  256
370
   -1
100
AcDbPolyline
 90
    2
 70
    0
 43
0
 10
-18.99995646310879
 20
-212.0000214132227
 10
-18.99892644724179
 20
-94.00007946536969
  0
ARC
  5
8F
100
AcDbEntity
  8
0
  6
ByLayer
 62
  256
370
   -1
100
AcDbCircle
 10
-14
 20
-212.0000435368423
 40
4.999956463157718
100
AcDbArc
 50
180
 51
270
  0
LWPOLYLINE
  5
90
100
AcDbEntity
  8
0
  6
ByLayer
 62
  256
370
   -1
100
AcDbPolyline
 90
    4
 70
    1
 43
0
 10
71.7
 20
-108
 10
81.7
 20
-108
 10
81.7
 20
-111.1
 10
71.7
 20
-111.1
  0
LWPOLYLINE
  5
91
100
AcDbEntity
  8
0
  6
ByLayer
 62
  256
370
   -1
100
AcDbPolyline
 90
    4
 70
    1
 43
0
 10
-6.000000000000001
 20
-181
 10
4
 20
-181
 10
4
 20
-184.1
 10
-6.000000000000001
 20
-184.1
  0
LWPOLYLINE
  5
92
100
AcDbEntity
  8
0
  6
ByLayer
 62
  256
370
   -1
100
AcDbPolyline
 90
    4
 70
    1
 43
0
 10
71.7
 20
-181
 10
81.7
 20
-181
 10
81.7
 20
-184.1
 10
71.7
 20
-184.1
  0
LWPOLYLINE
  5
93
100
AcDbEntity
  8
0
  6
ByLayer
 62
  256
370
   -1
100
AcDbPolyline
 90
    4
 70
    1
 43
0
 10
-5.999999999999999
 20
-108
 10
3.999999999999998
 20
-108
 10
3.999999999999998
 20
-111.1
 10
-5.999999999999999
 20
-111.1
  0
LWPOLYLINE
  5
94
100
AcDbEntity
  8
0
  6
ByLayer
 62
  256
370
   -1
100
AcDbPolyline
 90
    4
 70
    1
 43
0
 10
5.5
 20
-209
 10
15.5
 20
-209
 10
15.5
 20
-212.1
 10
5.5
 20
-212.1
  0
LWPOLYLINE
  5
95
100
AcDbEntity
  8
0
  6
ByLayer
 62
  256
370
   -1
100
AcDbPolyline
 90
    4
 70
    1
 43
0
 10
103.5
 20
-209
 10
113.5
 20
-209
 10
113.5
 20
-212.1
 10
103.5
 20
-212.1
  0
ARC
  5
96
100
AcDbEntity
  8
0
  6
ByLayer
 62
  256
370
   -1
100
AcDbCircle
 10
59.50107355275821
 20
-84.00007946536969
 40
5
100
AcDbArc
 50
0.004623376362475485
 51
180
  0
CIRCLE
  5
97
100
AcDbEntity
  8
0
  6
ByLayer
 62
  256
370
   -1
100
AcDbCircle
 10
18.25107355275821
 20
-61.25007946536969
 40
2.5
  0
CIRCLE
  5
98
100
AcDbEntity
  8
0
  6
ByLayer
 62
  256
370
   -1
100
AcDbCircle
 10
100.7510735527582
 20
-61.25007946536969
 40
2.5
  0
CIRCLE
  5
99
100
AcDbEntity
  8
0
  6
ByLayer
 62
  256
370
   -1
100
AcDbCircle
 10
100.7510735527582
 20
21.24992053463031
 40
2.5
  0
CIRCLE
  5
9A
100
AcDbEntity
  8
0
  6
ByLayer
 62
  256
370
   -1
100
AcDbCircle
 10
18.25107355275821
 20
21.24992053463031
 40
2.5
  0
CIRCLE
  5
9B
100
AcDbEntity
  8
0
  6
ByLayer
 62
  256
370
   -1
100
AcDbCircle
 10
59.50107355275821
 20
-20.00007946536969
 40
45
  0
CIRCLE
  5
9C
100
AcDbEntity
  8
0
  6
ByLayer
 62
  256
370
   -1
100
AcDbCircle
 10
8.40107355275822
 20
-57.2000794653697
 40
1.5
  0
CIRCLE
  5
9D
100
AcDbEntity
  8
0
  6
ByLayer
 62
  256
370
   -1
100
AcDbCircle
 10
8.40107355275822
 20
31.19992053463029
 40
1.5
  0
CIRCLE
  5
9E
100
AcDbEntity
  8
0
  6
ByLayer
 62
  256
370
   -1
100
AcDbCircle
 10
110.6010735527582
 20
-50.2000794653697
 40
1.5
  0
CIRCLE
  5
9F
100
AcDbEntity
  8
0
  6
ByLayer
 62
  256
370
   -1
100
AcDbCircle
 10
110.6010735527582
 20
31.19992053463029
 40
1.5
  0
ARC
  5
A0
100
AcDbEntity
  8
0
  6
ByLayer
 62
  256
370
   -1
100
AcDbCircle
 10
-14
 20
38.99995646315772
 40
5
100
AcDbArc
 50
90
 51
180.0004117990142
  0
LWPOLYLINE
  5
A1
100
AcDbEntity
  8
0
  6
ByLayer
 62
  256
370
   -1
100
AcDbPolyline
 90
    2
 70
    0
 43
0
 10
-18.99995646310879
 20
-79.00002141322274
 10
-18.99892644724179
 20
38.99992053463031
  0
ARC
  5
A2
100
AcDbEntity
  8
0
  6
ByLayer
 62
  256
370
   -1
100
AcDbCircle
 10
-14
 20
-79.00004353684228
 40
4.999956463157718
100
AcDbArc
 50
180
 51
270
  0
LINE
  5
A3
100
AcDbEntity
  8
0
  6
ByLayer
 62
  256
370
   -1
100
AcDbLine
 10
130.0010735527582
 20
31.99992053463031
 11
133.1010735527582
 21
31.99992053463031
  0
LINE
  5
A4
100
AcDbEntity
  8
0
  6
ByLayer
 62
  256
370
   -1
100
AcDbLine
 10
-14
 20
-89
 11
133
 21
-89
  0
LINE
  5
A5
100
AcDbEntity
  8
0
  6
ByLayer
 62
  256
370
   -1
100
AcDbLine
 10
-14
 20
-217
 11
54.50000000000001
 21
-217
  0
LINE
  5
A6
100
AcDbEntity
  8
0
  6
ByLayer
 62
  256
370
   -1
100
AcDbLine
 10
64.5
 20
-217
 11
133
 21
-217
  0
LINE
  5
A7
100
AcDbEntity
  8
0
  6
ByLayer
 62
  256
370
   -1
100
AcDbLine
 10
18.5
 20
-223.0000000000001
 11
18.5
 21
-222.0000000000001
  0
LINE
  5
A8
100
AcDbEntity
  8
0
  6
ByLayer
 62
  256
370
   -1
100
AcDbLine
 10
20.5
 20
-220.0000000000001
 11
26.5
 21
-220.0000000000001
  0
LINE
  5
A9
100
AcDbEntity
  8
0
  6
ByLayer
 62
  256
370
   -1
100
AcDbLine
 10
28.5
 20
-222.0000000000001
 11
28.5
 21
-223.0000000000001
  0
LINE
  5
AA
100
AcDbEntity
  8
0
  6
ByLayer
 62
  256
370
   -1
100
AcDbLine
 10
28.5
 20
-223.0000000000001
 11
90.5
 21
-223.0000000000001
  0
LINE
  5
AB
100
AcDbEntity
  8
0
  6
ByLayer
 62
  256
370
   -1
100
AcDbLine
 10
90.5
 20
-223.0000000000001
 11
90.5
 21
-222.0000000000001
  0
LINE
  5
AC
100
AcDbEntity
  8
0
  6
ByLayer
 62
  256
370
   -1
100
AcDbLine
 10
92.5
 20
-220.0000000000001
 11
98.5
 21
-220.0000000000001
  0
LINE
  5
AD
100
AcDbEntity
  8
0
  6
ByLayer
 62
  256
370
   -1
100
AcDbLine
 10
100.5
 20
-222.0000000000001
 11
100.5
 21
-223.0000000000001
  0
ARC
  5
AE
100
AcDbEntity
  8
0
  6
ByLayer
 62
  256
370
   -1
100
AcDbCircle
 10
20.5
 20
-222.0000000000001
 40
2
100
AcDbArc
 50
90
 51
180
  0
ARC
  5
AF
100
AcDbEntity
  8
0
  6
ByLayer
 62
  256
370
   -1
100
AcDbCircle
 10
26.5
 20
-222.0000000000001
 40
2
100
AcDbArc
 50
0
 51
90
  0
ARC
  5
B0
100
AcDbEntity
  8
0
  6
ByLayer
 62
  256
370
   -1
100
AcDbCircle
 10
92.5
 20
-222.0000000000001
 40
1.999999999999996
100
AcDbArc
 50
89.9999999999999
 51
180
  0
ARC
  5
B1
100
AcDbEntity
  8
0
  6
ByLayer
 62
  256
370
   -1
100
AcDbCircle
 10
98.5
 20
-222.0000000000001
 40
2.000000000000057
100
AcDbArc
 50
1.628443996909321e-12
 51
90
  0
CIRCLE
  5
B2
100
AcDbEntity
  8
0
  6
ByLayer
 62
  256
370
   -1
100
AcDbCircle
 10
11.48438160269839
 20
-258.0003565541645
 40
7.015115106763519
  0
LINE
  5
B3
100
AcDbEntity
  8
0
  6
ByLayer
 62
  256
370
   -1
100
AcDbLine
 10
9.184933973203982
 20
-237.5165744414402
 11
13.78493396969219
 21
-237.5167049254312
  0
LINE
  5
B4
100
AcDbEntity
  8
0
  6
ByLayer
 62
  256
370
   -1
100
AcDbLine
 10
13.78493396969219
 20
-237.5167049254312
 11
16.08482096509547
 21
-241.5004870224315
  0
LINE
  5
B5
100
AcDbEntity
  8
0
  6
ByLayer
 62
  256
370
   -1
100
AcDbLine
 10
16.08482096509547
 20
-241.5004870224315
 11
13.78470796401038
 21
-245.4841386354407
  0
LINE
  5
B6
100
AcDbEntity
  8
0
  6
ByLayer
 62
  256
370
   -1
100
AcDbLine
 10
13.78470796401038
 20
-245.4841386354407
 11
9.184707967522087
 21
-245.4840081514495
  0
LINE
  5
B7
100
AcDbEntity
  8
0
  6
ByLayer
 62
  256
370
   -1
100
AcDbLine
 10
9.184707967522087
 20
-245.4840081514495
 11
6.884820972118888
 21
-241.5002260544493
  0
LINE
  5
B8
100
AcDbEntity
  8
0
  6
ByLayer
 62
  256
370
   -1
100
AcDbLine
 10
6.884820972118888
 20
-241.5002260544493
 11
9.184933973203982
 21
-237.5165744414402
  0
LINE
  5
B9
100
AcDbEntity
  8
0
  6
ByLayer
 62
  256
370
   -1
100
AcDbLine
 10
80.63119256385403
 20
-231.3712668808369
 11
84.13119256112637
 21
-231.3713675769469
  0
LINE
  5
BA
100
AcDbEntity
  8
0
  6
ByLayer
 62
  256
370
   -1
100
AcDbLine
 10
84.13119256112637
 20
-231.3713675769469
 11
85.8811053540766
 21
-234.4025068363705
  0
LINE
  5
BB
100
AcDbEntity
  8
0
  6
ByLayer
 62
  256
370
   -1
100
AcDbLine
 10
85.8811053540766
 20
-234.4025068363705
 11
84.13101814975434
 21
-237.4335453996838
  0
LINE
  5
BC
100
AcDbEntity
  8
0
  6
ByLayer
 62
  256
370
   -1
100
AcDbLine
 10
84.13101814975434
 20
-237.4335453996838
 11
80.63101815248194
 21
-237.4334447035735
  0
LINE
  5
BD
100
AcDbEntity
  8
0
  6
ByLayer
 62
  256
370
   -1
100
AcDbLine
 10
80.63101815248194
 20
-237.4334447035735
 11
78.88110535953177
 21
-234.4023054441501
  0
LINE
  5
BE
100
AcDbEntity
  8
0
  6
ByLayer
 62
  256
370
   -1
100
AcDbLine
 10
78.88110535953177
 20
-234.4023054441501
 11
80.63119256385403
 21
-231.3712668808369
  0
ARC
  5
BF
100
AcDbEntity
  8
0
  6
ByLayer
 62
  256
370
   -1
100
AcDbCircle
 10
73.69859001749867
 20
-237.999979988203
 40
4
100
AcDbArc
 50
180
 51
270
  0
LINE
  5
C0
100
AcDbEntity
  8
0
  6
ByLayer
 62
  256
370
   -1
100
AcDbLine
 10
69.69859001749867
 20
-237.999979988203
 11
69.69859001749867
 21
-231.9999799882029
  0
LINE
  5
C1
100
AcDbEntity
  8
0
  6
ByLayer
 62
  256
370
   -1
100
AcDbLine
 10
73.69859001749867
 20
-241.999979988203
 11
94.39859001749869
 21
-241.999979988203
  0
LINE
  5
C2
100
AcDbEntity
  8
0
  6
ByLayer
 62
  256
370
   -1
100
AcDbLine
 10
100.5
 20
-223.0000000000001
 11
133
 21
-223
  0
CIRCLE
  5
C3
100
AcDbEntity
  8
0
  6
ByLayer
 62
  256
370
   -1
100
AcDbCircle
 10
-146.5989264472418
 20
-190.2000794653697
 40
1.5
  0
CIRCLE
  5
C4
100
AcDbEntity
  8
0
  6
ByLayer
 62
  256
370
   -1
100
AcDbCircle
 10
-146.5989264472418
 20
-101.8000794653697
 40
1.5
  0
CIRCLE
  5
C5
100
AcDbEntity
  8
0
  6
ByLayer
 62
  256
370
   -1
100
AcDbCircle
 10
-44.39892644724181
 20
-183.2000794653697
 40
1.5
  0
CIRCLE
  5
C6
100
AcDbEntity
  8
0
  6
ByLayer
 62
  256
370
   -1
100
AcDbCircle
 10
-44.39892644724181
 20
-101.8000794653697
 40
1.5
  0
LWPOLYLINE
  5
C7
100
AcDbEntity
  8
0
  6
ByLayer
 62
  256
370
   -1
100
AcDbPolyline
 90
    4
 70
    1
 43
0
 10
-83.29999999999998
 20
-108
 10
-73.29999999999998
 20
-108
 10
-73.29999999999998
 20
-111.1
 10
-83.29999999999998
 20
-111.1
  0
LWPOLYLINE
  5
C8
100
AcDbEntity
  8
0
  6
ByLayer
 62
  256
370
   -1
100
AcDbPolyline
 90
    4
 70
    1
 43
0
 10
-161
 20
-181
 10
-151
 20
-181
 10
-151
 20
-184.1
 10
-161
 20
-184.1
  0
LWPOLYLINE
  5
C9
100
AcDbEntity
  8
0
  6
ByLayer
 62
  256
370
   -1
100
AcDbPolyline
 90
    4
 70
    1
 43
0
 10
-83.29999999999998
 20
-181
 10
-73.29999999999998
 20
-181
 10
-73.29999999999998
 20
-184.1
 10
-83.29999999999998
 20
-184.1
  0
LWPOLYLINE
  5
CA
100
AcDbEntity
  8
0
  6
ByLayer
 62
  256
370
   -1
100
AcDbPolyline
 90
    4
 70
    1
 43
0
 10
-161
 20
-108
 10
-151
 20
-108
 10
-151
 20
-111.1
 10
-161
 20
-111.1
  0
ARC
  5
CB
100
AcDbEntity
  8
0
  6
ByLayer
 62
  256
370
   -1
100
AcDbCircle
 10
-156
 20
-121.0000000000001
 40
5
100
AcDbArc
 50
90
 51
180
  0
ARC
  5
CC
100
AcDbEntity
  8
0
  6
ByLayer
 62
  256
370
   -1
100
AcDbCircle
 10
-35
 20
-121
 40
5
100
AcDbArc
 50
0
 51
90
  0
LINE
  5
CD
100
AcDbEntity
  8
0
  6
ByLayer
 62
  256
370
   -1
100
AcDbLine
 10
-156
 20
-116
 11
-35
 21
-116
  0
ARC
  5
CE
100
AcDbEntity
  8
0
  6
ByLayer
 62
  256
370
   -1
100
AcDbCircle
 10
-35
 20
-171.0000000000001
 40
5
100
AcDbArc
 50
270
 51
0
  0
LINE
  5
CF
100
AcDbEntity
  8
0
  6
ByLayer
 62
  256
370
   -1
100
AcDbLine
 10
-30
 20
-121
 11
-30
 21
-171
  0
LINE
  5
D0
100
AcDbEntity
  8
0
  6
ByLayer
 62
  256
370
   -1
100
AcDbLine
 10
-85
 20
-176
 11
-35
 21
-176
  0
ARC
  5
D1
100
AcDbEntity
  8
0
  6
ByLayer
 62
  256
370
   -1
100
AcDbCircle
 10
-85
 20
-179
 40
3.001666203960726
100
AcDbArc
 50
90
 51
180
  0
LINE
  5
D2
100
AcDbEntity
  8
0
  6
ByLayer
 62
  256
370
   -1
100
AcDbLine
 10
-88
 20
-179
 11
-88
 21
-187
  0
ARC
  5
D3
100
AcDbEntity
  8
0
  6
ByLayer
 62
  256
370
   -1
100
AcDbCircle
 10
-91
 20
-187.0000000000001
 40
3
100
AcDbArc
 50
270
 51
0
  0
ARC
  5
D4
100
AcDbEntity
  8
0
  6
ByLayer
 62
  256
370
   -1
100
AcDbCircle
 10
-144
 20
-178.9
 40
3
100
AcDbArc
 50
0
 51
90
  0
ARC
  5
D5
100
AcDbEntity
  8
0
  6
ByLayer
 62
  256
370
   -1
100
AcDbCircle
 10
-138
 20
-187.0000000000001
 40
3
100
AcDbArc
 50
180
 51
270
  0
LINE
  5
D6
100
AcDbEntity
  8
0
  6
ByLayer
 62
  256
370
   -1
100
AcDbLine
 10
-141
 20
-187.0000000000001
 11
-141
 21
-178.9
  0
LINE
  5
D7
100
AcDbEntity
  8
0
  6
ByLayer
 62
  256
370
   -1
100
AcDbLine
 10
-138
 20
-190
 11
-91
 21
-190.0000000000001
  0
ARC
  5
D8
100
AcDbEntity
  8
0
  6
ByLayer
 62
  256
370
   -1
100
AcDbCircle
 10
-156.1
 20
-171.0000000000001
 40
4.899999999999977
100
AcDbArc
 50
180
 51
270
  0
LINE
  5
D9
100
AcDbEntity
  8
0
  6
ByLayer
 62
  256
370
   -1
100
AcDbLine
 10
-156.1
 20
-175.9
 11
-144
 21
-175.9000000000001
  0
LINE
  5
DA
100
AcDbEntity
  8
0
  6
ByLayer
 62
  256
370
   -1
100
AcDbLine
 10
-161
 20
-121
 11
-161
 21
-171
  0
ARC
  5
DB
100
AcDbEntity
  8
0
  6
ByLayer
 62
  256
370
   -1
100
AcDbCircle
 10
-161
 20
-102
 40
5
100
AcDbArc
 50
90
 51
180
  0
ARC
  5
DC
100
AcDbEntity
  8
0
  6
ByLayer
 62
  256
370
   -1
100
AcDbCircle
 10
-30
 20
-102
 40
5
100
AcDbArc
 50
0
 51
90
  0
ARC
  5
DD
100
AcDbEntity
  8
0
  6
ByLayer
 62
  256
370
   -1
100
AcDbCircle
 10
-30
 20
-204
 40
5
100
AcDbArc
 50
270
 51
0
  0
ARC
  5
DE
100
AcDbEntity
  8
0
  6
ByLayer
 62
  256
370
   -1
100
AcDbCircle
 10
-161
 20
-204.0000000000001
 40
5
100
AcDbArc
 50
180
 51
270
  0
LINE
  5
DF
100
AcDbEntity
  8
0
  6
ByLayer
 62
  256
370
   -1
100
AcDbLine
 10
-161
 20
-209.0000000000001
 11
-30
 21
-209
  0
LINE
  5
E0
100
AcDbEntity
  8
0
  6
ByLayer
 62
  256
370
   -1
100
AcDbLine
 10
-25
 20
-204
 11
-25
 21
-102
  0
LINE
  5
E1
100
AcDbEntity
  8
0
  6
ByLayer
 62
  256
370
   -1
100
AcDbLine
 10
-30
 20
-97
 11
-161
 21
-97
  0
LINE
  5
E2
100
AcDbEntity
  8
0
  6
ByLayer
 62
  256
370
   -1
100
AcDbLine
 10
-166
 20
-102
 11
-166
 21
-204
  0
LINE
  5
E3
100
AcDbEntity
  8
0
  6
ByLayer
 62
  256
370
   -1
100
AcDbLine
 10
-13.99999999999992
 20
-323.0000000000001
 11
5.500000000000071
 21
-323.0000000000001
  0
LINE
  5
E4
100
AcDbEntity
  8
0
  6
ByLayer
 62
  256
370
   -1
100
AcDbLine
 10
15.49859001749877
 20
-323.9999799882027
 11
15.49859001749877
 21
-322.9999799882027
  0
LINE
  5
E5
100
AcDbEntity
  8
0
  6
ByLayer
 62
  256
370
   -1
100
AcDbLine
 10
7.498590017498771
 20
-325.9999799882027
 11
13.49859001749877
 21
-325.9999799882027
  0
LINE
  5
E6
100
AcDbEntity
  8
0
  6
ByLayer
 62
  256
370
   -1
100
AcDbLine
 10
5.498590017498771
 20
-322.9999799882027
 11
5.498590017498771
 21
-323.9999799882027
  0
ARC
  5
E7
100
AcDbEntity
  8
0
  6
ByLayer
 62
  256
370
   -1
100
AcDbCircle
 10
7.498590017498771
 20
-323.9999799882027
 40
1.999999999999943
100
AcDbArc
 50
180
 51
270
  0
ARC
  5
E8
100
AcDbEntity
  8
0
  6
ByLayer
 62
  256
370
   -1
100
AcDbCircle
 10
13.49859001749877
 20
-323.9999799882027
 40
2.000000000000003
100
AcDbArc
 50
270
 51
1.628443996909321e-12
  0
LINE
  5
E9
100
AcDbEntity
  8
0
  6
ByLayer
 62
  256
370
   -1
100
AcDbLine
 10
133.0000000000001
 20
-323.0000000000001
 11
113.5000000000001
 21
-323.0000000000001
  0
LINE
  5
EA
100
AcDbEntity
  8
0
  6
ByLayer
 62
  256
370
   -1
100
AcDbLine
 10
113.4985900174988
 20
-323.9999799882027
 11
113.4985900174988
 21
-322.9999799882027
  0
LINE
  5
EB
100
AcDbEntity
  8
0
  6
ByLayer
 62
  256
370
   -1
100
AcDbLine
 10
105.4985900174988
 20
-325.9999799882027
 11
111.4985900174988
 21
-325.9999799882027
  0
LINE
  5
EC
100
AcDbEntity
  8
0
  6
ByLayer
 62
  256
370
   -1
100
AcDbLine
 10
103.4985900174988
 20
-322.9999799882027
 11
103.4985900174988
 21
-323.9999799882027
  0
ARC
  5
ED
100
AcDbEntity
  8
0
  6
ByLayer
 62
  256
370
   -1
100
AcDbCircle
 10
105.4985900174988
 20
-323.9999799882027
 40
1.999999999999943
100
AcDbArc
 50
180
 51
270
  0
ARC
  5
EE
100
AcDbEntity
  8
0
  6
ByLayer
 62
  256
370
   -1
100
AcDbCircle
 10
111.4985900174988
 20
-323.9999799882027
 40
2.000000000000003
100
AcDbArc
 50
270
 51
1.628443996909321e-12
  0
LINE
  5
EF
100
AcDbEntity
  8
0
  6
ByLayer
 62
  256
370
   -1
100
AcDbLine
 10
15.49859001749877
 20
-322.9999799882027
 11
103.4985900174988
 21
-322.9999799882027
  0
LINE
  5
F0
100
AcDbEntity
  8
0
  6
ByLayer
 62
  256
370
   -1
100
AcDbLine
 10
-14.00000000000003
 20
-223
 11
-13.99999999999992
 21
-323.0000000000001
  0
LINE
  5
F1
100
AcDbEntity
  8
0
  6
ByLayer
 62
  256
370
   -1
100
AcDbLine
 10
133
 20
-223
 11
133.0000000000001
 21
-323.0000000000001
  0
ARC
  5
F2
100
AcDbEntity
  8
0
  6
ByLayer
 62
  256
370
   -1
100
AcDbCircle
 10
150.9958634832698
 20
11.9953499847567
 40
5
100
AcDbArc
 50
360
 51
89.95725875718819
  0
LINE
  5
F3
100
AcDbEntity
  8
0
  6
ByLayer
 62
  256
370
   -1
100
AcDbLine
 10
145.9997096792773
 20
32.0000000030618
 11
146
 21
36
  0
LINE
  5
F4
100
AcDbEntity
  8
0
  6
ByLayer
 62
  256
370
   -1
100
AcDbLine
 10
150.9995967425688
 20
16.9998830285831
 11
145.9995967462695
 21
17.0000000052156
  0
LINE
  5
F5
100
AcDbEntity
  8
0
  6
ByLayer
 62
  256
370
   -1
100
AcDbLine
 10
145.9995967462695
 20
17.0000000052156
 11
145.9997096792773
 21
22.0000000030618
  0
ARC
  5
F6
100
AcDbEntity
  8
0
  6
ByLayer
 62
  256
370
   -1
100
AcDbCircle
 10
150.9958634832698
 20
-38.00465001524319
 40
5
100
AcDbArc
 50
270
 51
360
  0
LINE
  5
F7
100
AcDbEntity
  8
0
  6
ByLayer
 62
  256
370
   -1
100
AcDbLine
 10
155.9958634832698
 20
-38.00465001524319
 11
155.9958634832698
 21
11.9953499847567
  0
LINE
  5
F8
100
AcDbEntity
  8
0
  6
ByLayer
 62
  256
370
   -1
100
AcDbLine
 10
145.9958634832698
 20
21.9953499847567
 11
144.9958634832698
 21
21.9953499847567
  0
LINE
  5
F9
100
AcDbEntity
  8
0
  6
ByLayer
 62
  256
370
   -1
100
AcDbLine
 10
145.9958634832698
 20
31.9953499847567
 11
144.9958634832698
 21
31.9953499847567
  0
ARC
  5
FA
100
AcDbEntity
  8
0
  6
ByLayer
 62
  256
370
   -1
100
AcDbCircle
 10
144.9958634832698
 20
29.9953499847567
 40
2
100
AcDbArc
 50
90
 51
180
  0
ARC
  5
FB
100
AcDbEntity
  8
0
  6
ByLayer
 62
  256
370
   -1
100
AcDbCircle
 10
144.9958634832698
 20
23.9953499847568
 40
2
100
AcDbArc
 50
180
 51
270
  0
LINE
  5
FC
100
AcDbEntity
  8
0
  6
ByLayer
 62
  256
370
   -1
100
AcDbLine
 10
142.9958634832698
 20
23.9953499847568
 11
142.9958634832698
 21
29.9953499847568
  0
ARC
  5
FD
100
AcDbEntity
  8
0
  6
ByLayer
 62
  256
370
   -1
100
AcDbCircle
 10
197.994802374758
 20
-38.0022403761217
 40
5
100
AcDbArc
 50
180
 51
270
  0
ARC
  5
FE
100
AcDbEntity
  8
0
  6
ByLayer
 62
  256
370
   -1
100
AcDbCircle
 10
197.994802374758
 20
11.9977596238783
 40
5.000000000000014
100
AcDbArc
 50
89.95799360982473
 51
180
  0
LINE
  5
FF
100
AcDbEntity
  8
0
  6
ByLayer
 62
  256
370
   -1
100
AcDbLine
 10
192.994802374758
 20
11.9977596238783
 11
192.994802374758
 21
-38.0022403761217
  0
LINE
  5
100
100
AcDbEntity
  8
0
  6
ByLayer
 62
  256
370
   -1
100
AcDbLine
 10
197.994802374758
 20
-43.0022403761217
 11
210.994802374758
 21
-43.0022403761217
  0
ARC
  5
101
100
AcDbEntity
  8
0
  6
ByLayer
 62
  256
370
   -1
100
AcDbCircle
 10
210.994802374758
 20
11.9977596238783
 40
5
100
AcDbArc
 50
360
 51
90
  0
LINE
  5
102
100
AcDbEntity
  8
0
  6
ByLayer
 62
  256
370
   -1
100
AcDbLine
 10
210.994802374758
 20
16.9977596238783
 11
197.994802374758
 21
16.99775962387839
  0
LINE
  5
103
100
AcDbEntity
  8
0
  6
ByLayer
 62
  256
370
   -1
100
AcDbLine
 10
215.994802374758
 20
11.9977596238783
 11
215.994802374758
 21
-38.0022403761217
  0
ARC
  5
104
100
AcDbEntity
  8
0
  6
ByLayer
 62
  256
370
   -1
100
AcDbCircle
 10
210.994802374758
 20
-38.0022403761217
 40
5
100
AcDbArc
 50
270
 51
360
  0
LINE
  5
105
100
AcDbEntity
  8
0
  6
ByLayer
 62
  256
370
   -1
100
AcDbLine
 10
146
 20
-76
 11
246
 21
-76
  0
LINE
  5
106
100
AcDbEntity
  8
0
  6
ByLayer
 62
  256
370
   -1
100
AcDbLine
 10
146
 20
-76
 11
146
 21
-72
  0
LINE
  5
107
100
AcDbEntity
  8
0
  6
ByLayer
 62
  256
370
   -1
100
AcDbLine
 10
146
 20
-72
 11
145
 21
-72
  0
ARC
  5
108
100
AcDbEntity
  8
0
  6
ByLayer
 62
  256
370
   -1
100
AcDbCircle
 10
145
 20
-70
 40
2
100
AcDbArc
 50
180
 51
270
  0
LINE
  5
109
100
AcDbEntity
  8
0
  6
ByLayer
 62
  256
370
   -1
100
AcDbLine
 10
143
 20
-70
 11
143
 21
-64
  0
ARC
  5
10A
100
AcDbEntity
  8
0
  6
ByLayer
 62
  256
370
   -1
100
AcDbCircle
 10
145
 20
-64
 40
2
100
AcDbArc
 50
90
 51
180
  0
LINE
  5
10B
100
AcDbEntity
  8
0
  6
ByLayer
 62
  256
370
   -1
100
AcDbLine
 10
146
 20
-62
 11
145
 21
-62
  0
LINE
  5
10C
100
AcDbEntity
  8
0
  6
ByLayer
 62
  256
370
   -1
100
AcDbLine
 10
146
 20
-62
 11
146
 21
-43
  0
LINE
  5
10D
100
AcDbEntity
  8
0
  6
ByLayer
 62
  256
370
   -1
100
AcDbLine
 10
146
 20
-43
 11
151
 21
-43
  0
LINE
  5
10E
100
AcDbEntity
  8
0
  6
ByLayer
 62
  256
370
   -1
100
AcDbLine
 10
246.0002903207227
 20
32.0000000030618
 11
246
 21
36
  0
LINE
  5
10F
100
AcDbEntity
  8
0
  6
ByLayer
 62
  256
370
   -1
100
AcDbLine
 10
246.0041365167302
 20
21.9953499847567
 11
247.0041365167302
 21
21.9953499847567
  0
LINE
  5
110
100
AcDbEntity
  8
0
  6
ByLayer
 62
  256
370
   -1
100
AcDbLine
 10
246.0041365167302
 20
31.9953499847567
 11
247.0041365167302
 21
31.9953499847567
  0
ARC
  5
111
100
AcDbEntity
  8
0
  6
ByLayer
 62
  256
370
   -1
100
AcDbCircle
 10
247.0041365167302
 20
29.9953499847567
 40
2
100
AcDbArc
 50
0
 51
90
  0
ARC
  5
112
100
AcDbEntity
  8
0
  6
ByLayer
 62
  256
370
   -1
100
AcDbCircle
 10
247.0041365167302
 20
23.9953499847568
 40
2
100
AcDbArc
 50
270
 51
0
  0
LINE
  5
113
100
AcDbEntity
  8
0
  6
ByLayer
 62
  256
370
   -1
100
AcDbLine
 10
249.0041365167302
 20
23.9953499847568
 11
249.0041365167302
 21
29.9953499847568
  0
LINE
  5
114
100
AcDbEntity
  8
0
  6
ByLayer
 62
  256
370
   -1
100
AcDbLine
 10
246
 20
-76
 11
246
 21
-72
  0
LINE
  5
115
100
AcDbEntity
  8
0
  6
ByLayer
 62
  256
370
   -1
100
AcDbLine
 10
246
 20
-72
 11
247
 21
-72
  0
ARC
  5
116
100
AcDbEntity
  8
0
  6
ByLayer
 62
  256
370
   -1
100
AcDbCircle
 10
247
 20
-70
 40
2
100
AcDbArc
 50
270
 51
0
  0
LINE
  5
117
100
AcDbEntity
  8
0
  6
ByLayer
 62
  256
370
   -1
100
AcDbLine
 10
249
 20
-70
 11
249
 21
-64
  0
ARC
  5
118
100
AcDbEntity
  8
0
  6
ByLayer
 62
  256
370
   -1
100
AcDbCircle
 10
247
 20
-64
 40
2
100
AcDbArc
 50
0
 51
90
  0
LINE
  5
119
100
AcDbEntity
  8
0
  6
ByLayer
 62
  256
370
   -1
100
AcDbLine
 10
246
 20
-62
 11
247
 21
-62
  0
LINE
  5
11A
100
AcDbEntity
  8
0
  6
ByLayer
 62
  256
370
   -1
100
AcDbLine
 10
246
 20
22
 11
246
 21
-62
  0
LINE
  5
11B
100
AcDbEntity
  8
0
  6
ByLayer
 62
  256
370
   -1
100
AcDbLine
 10
146
 20
36
 11
246
 21
36
  0
LINE
  5
11C
100
AcDbEntity
  8
0
  6
ByLayer
 62
  256
370
   -1
100
AcDbLine
 10
-14
 20
-223
 11
18.5
 21
-223.0000000000001
  0
LINE
  5
11D
100
AcDbEntity
  8
0
  6
ByLayer
 62
  256
370
   -1
100
AcDbLine
 10
-14
 20
-84
 11
54.50107355275821
 21
-84.00007946536969
  0
ARC
  5
11E
100
AcDbEntity
  8
0
  6
ByLayer
 62
  256
370
   -1
100
AcDbCircle
 10
133
 20
-79.00004353684228
 40
4.999956463157718
100
AcDbArc
 50
270
 51
0
  0
ARC
  5
11F
100
AcDbEntity
  8
0
  6
ByLayer
 62
  256
370
   -1
100
AcDbCircle
 10
133
 20
39.00000000000001
 40
5
100
AcDbArc
 50
359.9995882009858
 51
90
  0
LINE
  5
120
100
AcDbEntity
  8
0
  6
ByLayer
 62
  256
370
   -1
100
AcDbLine
 10
137.9999564631578
 20
-79.00004353684228
 11
137.9999999998709
 21
38.99996406375673
  0
LINE
  5
121
100
AcDbEntity
  8
0
  6
ByLayer
 62
  256
370
   -1
100
AcDbLine
 10
133
 20
-84
 11
64.5
 21
-84
  0
LINE
  5
122
100
AcDbEntity
  8
0
  6
ByLayer
 62
  256
370
   -1
100
AcDbLine
 10
-14
 20
44
 11
133
 21
44
  0
LWPOLYLINE
  5
123
100
AcDbEntity
  8
0
  6
ByLayer
 62
  256
370
   -1
100
AcDbPolyline
 90
    4
 70
    1
 43
0
 10
18.5
 20
36
 10
28.5
 20
36
 10
28.5
 20
39.1
 10
18.5
 20
39.1
  0
LWPOLYLINE
  5
124
100
AcDbEntity
  8
0
  6
ByLayer
 62
  256
370
   -1
100
AcDbPolyline
 90
    4
 70
    1
 43
0
 10
-14.1
 20
32
 10
-11
 20
32
 10
-11
 20
22
 10
-14.1
 20
22
  0
LWPOLYLINE
  5
125
100
AcDbEntity
  8
0
  6
ByLayer
 62
  256
370
   -1
100
AcDbPolyline
 90
    4
 70
    1
 43
0
 10
-14.1
 20
-62.00000000000001
 10
-11
 20
-62.00000000000001
 10
-11
 20
-72
 10
-14.1
 20
-72
  0
LWPOLYLINE
  5
126
100
AcDbEntity
  8
0
  6
ByLayer
 62
  256
370
   -1
100
AcDbPolyline
 90
    4
 70
    1
 43
0
 10
18.5
 20
-76
 10
28.5
 20
-76
 10
28.5
 20
-79.10000000000001
 10
18.5
 20
-79.10000000000001
  0
LWPOLYLINE
  5
127
100
AcDbEntity
  8
0
  6
ByLayer
 62
  256
370
   -1
100
AcDbPolyline
 90
    4
 70
    1
 43
0
 10
90.50000000000001
 20
-76
 10
100.5
 20
-76
 10
100.5
 20
-79.10000000000001
 10
90.50000000000001
 20
-79.10000000000001
  0
LWPOLYLINE
  5
128
100
AcDbEntity
  8
0
  6
ByLayer
 62
  256
370
   -1
100
AcDbPolyline
 90
    4
 70
    1
 43
0
 10
130
 20
-62
 10
133.1
 20
-62
 10
133.1
 20
-72
 10
130
 20
-72
  0
LWPOLYLINE
  5
129
100
AcDbEntity
  8
0
  6
ByLayer
 62
  256
370
   -1
100
AcDbPolyline
 90
    4
 70
    1
 43
0
 10
130
 20
32
 10
133.1
 20
32
 10
133.1
 20
22
 10
130
 20
22
  0
LWPOLYLINE
  5
12A
100
AcDbEntity
  8
0
  6
ByLayer
 62
  256
370
   -1
100
AcDbPolyline
 90
    4
 70
    1
 43
0
 10
90.50000000000001
 20
39.1
 10
100.5
 20
39.1
 10
100.5
 20
36
 10
90.50000000000001
 20
36
  0
LWPOLYLINE
  5
12B
100
AcDbEntity
  8
0
  6
ByLayer
 62
  256
370
   -1
100
AcDbPolyline
 90
    4
 70
    1
 43
0
 10
-14.1
 20
-101
 10
-11
 20
-101
 10
-11
 20
-111
 10
-14.1
 20
-111
  0
LWPOLYLINE
  5
12C
100
AcDbEntity
  8
0
  6
ByLayer
 62
  256
370
   -1
100
AcDbPolyline
 90
    4
 70
    1
 43
0
 10
18.5
 20
-93.90000000000001
 10
28.5
 20
-93.90000000000001
 10
28.5
 20
-97
 10
18.5
 20
-97
  0
LWPOLYLINE
  5
12D
100
AcDbEntity
  8
0
  6
ByLayer
 62
  256
370
   -1
100
AcDbPolyline
 90
    4
 70
    1
 43
0
 10
90.50000000000001
 20
-93.89999999999999
 10
100.5
 20
-93.89999999999999
 10
100.5
 20
-97
 10
90.50000000000001
 20
-97
  0
LWPOLYLINE
  5
12E
100
AcDbEntity
  8
0
  6
ByLayer
 62
  256
370
   -1
100
AcDbPolyline
 90
    4
 70
    1
 43
0
 10
130
 20
-101
 10
133.1
 20
-101
 10
133.1
 20
-111
 10
130
 20
-111
  0
LWPOLYLINE
  5
12F
100
AcDbEntity
  8
0
  6
ByLayer
 62
  256
370
   -1
100
AcDbPolyline
 90
    4
 70
    1
 43
0
 10
-14.1
 20
-195
 10
-11
 20
-195
 10
-11
 20
-205
 10
-14.1
 20
-205
  0
LWPOLYLINE
  5
130
100
AcDbEntity
  8
0
  6
ByLayer
 62
  256
370
   -1
100
AcDbPolyline
 90
    4
 70
    1
 43
0
 10
130
 20
-195
 10
133.1
 20
-195
 10
133.1
 20
-205
 10
130
 20
-205
  0
LWPOLYLINE
  5
131
100
AcDbEntity
  8
0
  6
ByLayer
 62
  256
370
   -1
100
AcDbPolyline
 90
    4
 70
    1
 43
0
 10
98.70000000000002
 20
-227
 10
113.5
 20
-227
 10
113.5
 20
-264.0000000000001
 10
98.70000000000002
 20
-264.0000000000001
  0
LINE
  5
132
100
AcDbEntity
  8
0
  6
ByLayer
 62
  256
370
   -1
100
AcDbLine
 10
24
 20
-264
 11
94.40000000000002
 21
-264.0000000000001
  0
LINE
  5
133
100
AcDbEntity
  8
0
  6
ByLayer
 62
  256
370
   -1
100
AcDbLine
 10
24
 20
-232
 11
24
 21
-264
  0
LINE
  5
134
100
AcDbEntity
  8
0
  6
ByLayer
 62
  256
370
   -1
100
AcDbLine
 10
24
 20
-232
 11
69.70000000000002
 21
-232
  0
LINE
  5
135
100
AcDbEntity
  8
0
  6
ByLayer
 62
  256
370
   -1
100
AcDbLine
 10
94.39859001749869
 20
-241.999979988203
 11
94.40000000000002
 21
-264.0000000000001
  0
ARC
  5
136
100
AcDbEntity
  8
0
  6
ByLayer
 62
  256
370
   -1
100
AcDbCircle
 10
-31.9958634832698
 20
11.9953499847567
 40
5
100
AcDbArc
 50
90.04274124281181
 51
180
  0
LINE
  5
137
100
AcDbEntity
  8
0
  6
ByLayer
 62
  256
370
   -1
100
AcDbLine
 10
-26.99970967927729
 20
32.0000000030618
 11
-27
 21
36
  0
LINE
  5
138
100
AcDbEntity
  8
0
  6
ByLayer
 62
  256
370
   -1
100
AcDbLine
 10
-31.9995967425688
 20
16.9998830285831
 11
-26.9995967462695
 21
17.0000000052156
  0
LINE
  5
139
100
AcDbEntity
  8
0
  6
ByLayer
 62
  256
370
   -1
100
AcDbLine
 10
-26.9995967462695
 20
17.0000000052156
 11
-26.99970967927729
 21
22.0000000030618
  0
ARC
  5
13A
100
AcDbEntity
  8
0
  6
ByLayer
 62
  256
370
   -1
100
AcDbCircle
 10
-31.9958634832698
 20
-38.00465001524319
 40
5
100
AcDbArc
 50
180
 51
270
  0
LINE
  5
13B
100
AcDbEntity
  8
0
  6
ByLayer
 62
  256
370
   -1
100
AcDbLine
 10
-36.9958634832698
 20
-38.00465001524319
 11
-36.9958634832698
 21
11.9953499847567
  0
LINE
  5
13C
100
AcDbEntity
  8
0
  6
ByLayer
 62
  256
370
   -1
100
AcDbLine
 10
-26.9958634832698
 20
21.9953499847567
 11
-25.9958634832698
 21
21.9953499847567
  0
LINE
  5
13D
100
AcDbEntity
  8
0
  6
ByLayer
 62
  256
370
   -1
100
AcDbLine
 10
-26.9958634832698
 20
31.9953499847567
 11
-25.9958634832698
 21
31.9953499847567
  0
ARC
  5
13E
100
AcDbEntity
  8
0
  6
ByLayer
 62
  256
370
   -1
100
AcDbCircle
 10
-25.9958634832698
 20
29.9953499847567
 40
2
100
AcDbArc
 50
360
 51
90
  0
ARC
  5
13F
100
AcDbEntity
  8
0
  6
ByLayer
 62
  256
370
   -1
100
AcDbCircle
 10
-25.9958634832698
 20
23.9953499847568
 40
2
100
AcDbArc
 50
270
 51
360
  0
LINE
  5
140
100
AcDbEntity
  8
0
  6
ByLayer
 62
  256
370
   -1
100
AcDbLine
 10
-23.9958634832698
 20
23.9953499847568
 11
-23.9958634832698
 21
29.9953499847568
  0
ARC
  5
141
100
AcDbEntity
  8
0
  6
ByLayer
 62
  256
370
   -1
100
AcDbCircle
 10
-78.994802374758
 20
-38.0022403761217
 40
5
100
AcDbArc
 50
270
 51
360
  0
ARC
  5
142
100
AcDbEntity
  8
0
  6
ByLayer
 62
  256
370
   -1
100
AcDbCircle
 10
-78.994802374758
 20
11.99775962387829
 40
5.000000000000014
100
AcDbArc
 50
360
 51
90.04200639017527
  0
LINE
  5
143
100
AcDbEntity
  8
0
  6
ByLayer
 62
  256
370
   -1
100
AcDbLine
 10
-73.994802374758
 20
11.99775962387829
 11
-73.994802374758
 21
-38.0022403761217
  0
LINE
  5
144
100
AcDbEntity
  8
0
  6
ByLayer
 62
  256
370
   -1
100
AcDbLine
 10
-78.994802374758
 20
-43.0022403761217
 11
-91.994802374758
 21
-43.0022403761217
  0
ARC
  5
145
100
AcDbEntity
  8
0
  6
ByLayer
 62
  256
370
   -1
100
AcDbCircle
 10
-91.994802374758
 20
11.99775962387829
 40
5
100
AcDbArc
 50
90
 51
180
  0
LINE
  5
146
100
AcDbEntity
  8
0
  6
ByLayer
 62
  256
370
   -1
100
AcDbLine
 10
-91.994802374758
 20
16.9977596238783
 11
-78.994802374758
 21
16.9977596238784
  0
LINE
  5
147
100
AcDbEntity
  8
0
  6
ByLayer
 62
  256
370
   -1
100
AcDbLine
 10
-96.994802374758
 20
11.99775962387829
 11
-96.994802374758
 21
-38.0022403761217
  0
ARC
  5
148
100
AcDbEntity
  8
0
  6
ByLayer
 62
  256
370
   -1
100
AcDbCircle
 10
-91.994802374758
 20
-38.0022403761217
 40
5
100
AcDbArc
 50
180
 51
270
  0
LINE
  5
149
100
AcDbEntity
  8
0
  6
ByLayer
 62
  256
370
   -1
100
AcDbLine
 10
-27
 20
-76
 11
-127
 21
-76
  0
LINE
  5
14A
100
AcDbEntity
  8
0
  6
ByLayer
 62
  256
370
   -1
100
AcDbLine
 10
-27
 20
-76
 11
-27
 21
-72
  0
LINE
  5
14B
100
AcDbEntity
  8
0
  6
ByLayer
 62
  256
370
   -1
100
AcDbLine
 10
-27
 20
-72
 11
-26
 21
-72
  0
ARC
  5
14C
100
AcDbEntity
  8
0
  6
ByLayer
 62
  256
370
   -1
100
AcDbCircle
 10
-26
 20
-70
 40
2
100
AcDbArc
 50
270
 51
360
  0
LINE
  5
14D
100
AcDbEntity
  8
0
  6
ByLayer
 62
  256
370
   -1
100
AcDbLine
 10
-24
 20
-70
 11
-24
 21
-64
  0
ARC
  5
14E
100
AcDbEntity
  8
0
  6
ByLayer
 62
  256
370
   -1
100
AcDbCircle
 10
-26
 20
-64
 40
2
100
AcDbArc
 50
360
 51
90
  0
LINE
  5
14F
100
AcDbEntity
  8
0
  6
ByLayer
 62
  256
370
   -1
100
AcDbLine
 10
-27
 20
-62
 11
-26
 21
-62
  0
LINE
  5
150
100
AcDbEntity
  8
0
  6
ByLayer
 62
  256
370
   -1
100
AcDbLine
 10
-27
 20
-62
 11
-27
 21
-43
  0
LINE
  5
151
100
AcDbEntity
  8
0
  6
ByLayer
 62
  256
370
   -1
100
AcDbLine
 10
-27
 20
-43
 11
-32
 21
-43
  0
LINE
  5
152
100
AcDbEntity
  8
0
  6
ByLayer
 62
  256
370
   -1
100
AcDbLine
 10
-127.0002903207227
 20
32.0000000030618
 11
-127
 21
36
  0
LINE
  5
153
100
AcDbEntity
  8
0
  6
ByLayer
 62
  256
370
   -1
100
AcDbLine
 10
-127.0041365167302
 20
21.9953499847567
 11
-128.0041365167302
 21
21.9953499847567
  0
LINE
  5
154
100
AcDbEntity
  8
0
  6
ByLayer
 62
  256
370
   -1
100
AcDbLine
 10
-127.0041365167302
 20
31.9953499847567
 11
-128.0041365167302
 21
31.9953499847567
  0
ARC
  5
155
100
AcDbEntity
  8
0
  6
ByLayer
 62
  256
370
   -1
100
AcDbCircle
 10
-128.0041365167302
 20
29.9953499847567
 40
2
100
AcDbArc
 50
90
 51
180
  0
ARC
  5
156
100
AcDbEntity
  8
0
  6
ByLayer
 62
  256
370
   -1
100
AcDbCircle
 10
-128.0041365167302
 20
23.9953499847568
 40
2
100
AcDbArc
 50
180
 51
270
  0
LINE
  5
157
100
AcDbEntity
  8
0
  6
ByLayer
 62
  256
370
   -1
100
AcDbLine
 10
-130.0041365167302
 20
23.9953499847568
 11
-130.0041365167302
 21
29.9953499847568
  0
LINE
  5
158
100
AcDbEntity
  8
0
  6
ByLayer
 62
  256
370
   -1
100
AcDbLine
 10
-127
 20
-76
 11
-127
 21
-72
  0
LINE
  5
159
100
AcDbEntity
  8
0
  6
ByLayer
 62
  256
370
   -1
100
AcDbLine
 10
-127
 20
-72
 11
-128
 21
-72
  0
ARC
  5
15A
100
AcDbEntity
  8
0
  6
ByLayer
 62
  256
370
   -1
100
AcDbCircle
 10
-128
 20
-70
 40
2
100
AcDbArc
 50
180
 51
270
  0
LINE
  5
15B
100
AcDbEntity
  8
0
  6
ByLayer
 62
  256
370
   -1
100
AcDbLine
 10
-130
 20
-70
 11
-130
 21
-64
  0
ARC
  5
15C
100
AcDbEntity
  8
0
  6
ByLayer
 62
  256
370
   -1
100
AcDbCircle
 10
-128
 20
-64
 40
2
100
AcDbArc
 50
90
 51
180
  0
LINE
  5
15D
100
AcDbEntity
  8
0
  6
ByLayer
 62
  256
370
   -1
100
AcDbLine
 10
-127
 20
-62
 11
-128
 21
-62
  0
LINE
  5
15E
100
AcDbEntity
  8
0
  6
ByLayer
 62
  256
370
   -1
100
AcDbLine
 10
-127
 20
22
 11
-127
 21
-62
  0
LINE
  5
15F
100
AcDbEntity
  8
0
  6
ByLayer
 62
  256
370
   -1
100
AcDbLine
 10
-27
 20
36
 11
-127
 21
36
  0
LWPOLYLINE
  5
160
100
AcDbEntity
  8
0
  6
ByLayer
 62
  256
370
   -1
100
AcDbPolyline
 90
    2
 70
    0
 43
0
 10
-67.29992606350541
 20
-216.9999484734163
 10
-70.29992606080719
 20
-216.9999457044399
  0
LWPOLYLINE
  5
161
100
AcDbEntity
  8
0
  6
ByLayer
 62
  256
370
   -1
100
AcDbPolyline
 90
    2
 70
    0
 43
0
 10
-157.9999259966761
 20
-216.9998602328673
 10
-160.9999259920075
 20
-216.9998619686106
  0
LWPOLYLINE
  5
162
100
AcDbEntity
  8
0
  6
ByLayer
 62
  256
370
   -1
100
AcDbPolyline
 90
    2
 70
    0
 43
0
 10
-83.2999815056304
 20
-246.9999594491073
 10
-83.29994453716279
 20
-226.9999594747829
  0
LWPOLYLINE
  5
163
100
AcDbEntity
  8
0
  6
ByLayer
 62
  256
370
   -1
100
AcDbPolyline
 90
    2
 70
    0
 43
0
 10
-83.29994453716279
 20
-226.9999594747829
 10
-144.999944501357
 20
-226.9999024966045
  0
LWPOLYLINE
  5
164
100
AcDbEntity
  8
0
  6
ByLayer
 62
  256
370
   -1
100
AcDbPolyline
 90
    2
 70
    0
 43
0
 10
-144.999944501357
 20
-226.9999024966045
 10
-144.9999814702573
 20
-246.9999024703011
  0
LWPOLYLINE
  5
165
100
AcDbEntity
  8
0
  6
ByLayer
 62
  256
370
   -1
100
AcDbPolyline
 90
    2
 70
    0
 43
0
 10
-144.9999814702573
 20
-246.9999024703011
 10
-83.2999815056304
 20
-246.9999594491073
  0
LWPOLYLINE
  5
166
100
AcDbEntity
  8
0
  6
ByLayer
 62
  256
370
   -1
100
AcDbPolyline
 90
    2
 70
    0
 43
0
 10
-83.29999998931291
 20
-256.9999852263447
 10
-80.2999999912038
 20
-256.9999879965309
  0
LWPOLYLINE
  5
167
100
AcDbEntity
  8
0
  6
ByLayer
 62
  256
370
   -1
100
AcDbPolyline
 90
    2
 70
    0
 43
0
 10
-70.29999999752039
 20
-256.9999972305903
 10
-67.30000000000001
 20
-257
  0
LWPOLYLINE
  5
168
100
AcDbEntity
  8
0
  6
ByLayer
 62
  256
370
   -1
100
AcDbPolyline
 90
    2
 70
    0
 43
0
 10
-70.29999999752039
 20
-256.9999972305903
 10
-70.30000917683131
 20
-257.9999994313405
  0
LWPOLYLINE
  5
169
100
AcDbEntity
  8
0
  6
ByLayer
 62
  256
370
   -1
100
AcDbPolyline
 90
    2
 70
    0
 43
0
 10
-158.000041901656
 20
-256.9999162373681
 10
-158.0000447304409
 20
-257.9999162360475
  0
LWPOLYLINE
  5
16A
100
AcDbEntity
  8
0
  6
ByLayer
 62
  256
370
   -1
100
AcDbPolyline
 90
    2
 70
    0
 43
0
 10
-78.3000132181788
 20
-259.9999898377743
 10
-72.30001322218561
 20
-259.9999953793139
  0
LWPOLYLINE
  5
16B
100
AcDbEntity
  8
0
  6
ByLayer
 62
  256
370
   -1
100
AcDbPolyline
 90
    2
 70
    0
 43
0
 10
-67.30000000000001
 20
-257
 10
-67.29992606350541
 20
-216.9999484734163
  0
LWPOLYLINE
  5
16C
100
AcDbEntity
  8
0
  6
ByLayer
 62
  256
370
   -1
100
AcDbPolyline
 90
    2
 70
    0
 43
0
 10
-148.000039131726
 20
-256.9999254730205
 10
-148.000041990247
 20
-257.9999254774328
  0
LWPOLYLINE
  5
16D
100
AcDbEntity
  8
0
  6
ByLayer
 62
  256
370
   -1
100
AcDbPolyline
 90
    2
 70
    0
 43
0
 10
-147.9999260162019
 20
-216.9998544768193
 10
-144.9999228187015
 20
-216.9998187493683
  0
ARC
  5
16E
100
AcDbEntity
  8
0
  6
ByLayer
 62
  256
370
   -1
100
AcDbCircle
 10
-72.30000000000001
 20
-258
 40
1.99999537935758
100
AcDbArc
 50
269.9996212114111
 51
0
  0
ARC
  5
16F
100
AcDbEntity
  8
0
  6
ByLayer
 62
  256
370
   -1
100
AcDbCircle
 10
-78.30000000000001
 20
-257.9999999999999
 40
2.000009162898944
100
AcDbArc
 50
180
 51
269.9996213251462
  0
LINE
  5
170
100
AcDbEntity
  8
0
  6
ByLayer
 62
  256
370
   -1
100
AcDbLine
 10
-80.30000916289899
 20
-257.9999999999999
 11
-80.30000000000001
 21
-257
  0
LINE
  5
171
100
AcDbEntity
  8
0
  6
ByLayer
 62
  256
370
   -1
100
AcDbLine
 10
-83.30000000000001
 20
-257
 11
-83.30000000000001
 21
-252
  0
LINE
  5
172
100
AcDbEntity
  8
0
  6
ByLayer
 62
  256
370
   -1
100
AcDbLine
 10
-83.30000000000001
 20
-252
 11
-145
 21
-252
  0
LINE
  5
173
100
AcDbEntity
  8
0
  6
ByLayer
 62
  256
370
   -1
100
AcDbLine
 10
-145
 20
-252
 11
-145
 21
-257
  0
LINE
  5
174
100
AcDbEntity
  8
0
  6
ByLayer
 62
  256
370
   -1
100
AcDbLine
 10
-145
 20
-257
 11
-148
 21
-257
  0
ARC
  5
175
100
AcDbEntity
  8
0
  6
ByLayer
 62
  256
370
   -1
100
AcDbCircle
 10
-150
 20
-258
 40
2
100
AcDbArc
 50
270
 51
0
  0
LINE
  5
176
100
AcDbEntity
  8
0
  6
ByLayer
 62
  256
370
   -1
100
AcDbLine
 10
-150
 20
-260
 11
-156
 21
-260
  0
ARC
  5
177
100
AcDbEntity
  8
0
  6
ByLayer
 62
  256
370
   -1
100
AcDbCircle
 10
-156
 20
-258
 40
2
100
AcDbArc
 50
180
 51
270
  0
LINE
  5
178
100
AcDbEntity
  8
0
  6
ByLayer
 62
  256
370
   -1
100
AcDbLine
 10
-158
 20
-257
 11
-161
 21
-257
  0
LINE
  5
179
100
AcDbEntity
  8
0
  6
ByLayer
 62
  256
370
   -1
100
AcDbLine
 10
-161
 20
-257
 11
-161
 21
-217
  0
LINE
  5
17A
100
AcDbEntity
  8
0
  6
ByLayer
 62
  256
370
   -1
100
AcDbLine
 10
-158
 20
-217
 11
-158
 21
-216
  0
ARC
  5
17B
100
AcDbEntity
  8
0
  6
ByLayer
 62
  256
370
   -1
100
AcDbCircle
 10
-156
 20
-216
 40
2
100
AcDbArc
 50
90
 51
180
  0
LINE
  5
17C
100
AcDbEntity
  8
0
  6
ByLayer
 62
  256
370
   -1
100
AcDbLine
 10
-156
 20
-214
 11
-150
 21
-214
  0
ARC
  5
17D
100
AcDbEntity
  8
0
  6
ByLayer
 62
  256
370
   -1
100
AcDbCircle
 10
-150
 20
-216
 40
2
100
AcDbArc
 50
0
 51
90
  0
LINE
  5
17E
100
AcDbEntity
  8
0
  6
ByLayer
 62
  256
370
   -1
100
AcDbLine
 10
-148
 20
-216.9999999999999
 11
-148
 21
-215.9999999999999
  0
LINE
  5
17F
100
AcDbEntity
  8
0
  6
ByLayer
 62
  256
370
   -1
100
AcDbLine
 10
-145
 20
-216.9999999999999
 11
-145
 21
-221.9999999999999
  0
LINE
  5
180
100
AcDbEntity
  8
0
  6
ByLayer
 62
  256
370
   -1
100
AcDbLine
 10
-145
 20
-222
 11
-83.30000000000001
 21
-222
  0
LINE
  5
181
100
AcDbEntity
  8
0
  6
ByLayer
 62
  256
370
   -1
100
AcDbLine
 10
-83.30000000000001
 20
-222
 11
-83.30000000000001
 21
-217
  0
LINE
  5
182
100
AcDbEntity
  8
0
  6
ByLayer
 62
  256
370
   -1
100
AcDbLine
 10
-83.30000000000001
 20
-217
 11
-80.30000000000001
 21
-217
  0
LINE
  5
183
100
AcDbEntity
  8
0
  6
ByLayer
 62
  256
370
   -1
100
AcDbLine
 10
-80.30000000000001
 20
-217
 11
-80.30000000000001
 21
-216
  0
ARC
  5
184
100
AcDbEntity
  8
0
  6
ByLayer
 62
  256
370
   -1
100
AcDbCircle
 10
-78.30000000000001
 20
-216
 40
2
100
AcDbArc
 50
90
 51
180
  0
LINE
  5
185
100
AcDbEntity
  8
0
  6
ByLayer
 62
  256
370
   -1
100
AcDbLine
 10
-78.30000000000001
 20
-213.9999999999999
 11
-72.30000000000001
 21
-213.9999999999999
  0
ARC
  5
186
100
AcDbEntity
  8
0
  6
ByLayer
 62
  256
370
   -1
100
AcDbCircle
 10
-72.30000000000001
 20
-215.9999999999999
 40
2
100
AcDbArc
 50
0
 51
90
  0
LINE
  5
187
100
AcDbEntity
  8
0
  6
ByLayer
 62
  256
370
   -1
100
AcDbLine
 10
-70.30000000000001
 20
-216.9999999999999
 11
-70.30000000000001
 21
-215.9999999999999
  0
CIRCLE
  5
188
100
AcDbEntity
  8
0
  6
ByLayer
 62
  256
370
   -1
100
AcDbCircle
 10
-152.9999925819766
 20
-248.9999253106018
 40
1.500007419882908
  0
CIRCLE
  5
189
100
AcDbEntity
  8
0
  6
ByLayer
 62
  256
370
   -1
100
AcDbCircle
 10
-152.9999528131435
 20
-231.4998492611064
 40
1.499999999263267
  0
ARC
  5
18A
100
AcDbEntity
  8
0
  6
ByLayer
 62
  256
370
   -1
100
AcDbCircle
 10
-73.80000000000001
 20
-249
 40
1.500014788692636
100
AcDbArc
 50
270.0000000000022
 51
89.99999999999775
  0
ARC
  5
18B
100
AcDbEntity
  8
0
  6
ByLayer
 62
  256
370
   -1
100
AcDbCircle
 10
-76.80000000000001
 20
-248.9999999999999
 40
1.5
100
AcDbArc
 50
90.00000000000225
 51
269.9999999999978
  0
ARC
  5
18C
100
AcDbEntity
  8
0
  6
ByLayer
 62
  256
370
   -1
100
AcDbCircle
 10
-73.80000000000001
 20
-231.5
 40
1.500047138500584
100
AcDbArc
 50
270
 51
89.99999999999775
  0
ARC
  5
18D
100
AcDbEntity
  8
0
  6
ByLayer
 62
  256
370
   -1
100
AcDbCircle
 10
-76.80000000000001
 20
-231.5
 40
1.5
100
AcDbArc
 50
90
 51
270
  0
LINE
  5
18E
100
AcDbEntity
  8
0
  6
ByLayer
 62
  256
370
   -1
100
AcDbLine
 10
-73.80000000000001
 20
-230
 11
-76.80056137762489
 21
-230.0000001050573
  0
LINE
  5
18F
100
AcDbEntity
  8
0
  6
ByLayer
 62
  256
370
   -1
100
AcDbLine
 10
-76.80000000000001
 20
-232.9999137842082
 11
-73.80000000000001
 21
-233.0000471385031
  0
LINE
  5
190
100
AcDbEntity
  8
0
  6
ByLayer
 62
  256
370
   -1
100
AcDbLine
 10
-76.80000000000001
 20
-247.4999219149336
 11
-73.80000000000001
 21
-247.5
  0
LINE
  5
191
100
AcDbEntity
  8
0
  6
ByLayer
 62
  256
370
   -1
100
AcDbLine
 10
-73.80000000000001
 20
-250.5000147887076
 11
-76.80000000000001
 21
-250.5
  0
LWPOLYLINE
  5
192
100
AcDbEntity
  8
0
  6
ByLayer
 62
  256
370
   -1
100
AcDbPolyline
 90
    2
 70
    0
 43
0
 10
-67.29992606350541
 20
-267.9999484734163
 10
-70.29992606080719
 20
-267.9999457044399
  0
LWPOLYLINE
  5
193
100
AcDbEntity
  8
0
  6
ByLayer
 62
  256
370
   -1
100
AcDbPolyline
 90
    2
 70
    0
 43
0
 10
-157.9999259966761
 20
-267.9998602328673
 10
-160.9999259920075
 20
-267.9998619686106
  0
LWPOLYLINE
  5
194
100
AcDbEntity
  8
0
  6
ByLayer
 62
  256
370
   -1
100
AcDbPolyline
 90
    2
 70
    0
 43
0
 10
-83.2999815056304
 20
-297.9999594491073
 10
-83.29994453716279
 20
-277.9999594747829
  0
LWPOLYLINE
  5
195
100
AcDbEntity
  8
0
  6
ByLayer
 62
  256
370
   -1
100
AcDbPolyline
 90
    2
 70
    0
 43
0
 10
-83.29994453716279
 20
-277.9999594747829
 10
-144.999944501357
 20
-277.9999024966045
  0
LWPOLYLINE
  5
196
100
AcDbEntity
  8
0
  6
ByLayer
 62
  256
370
   -1
100
AcDbPolyline
 90
    2
 70
    0
 43
0
 10
-144.999944501357
 20
-277.9999024966045
 10
-144.9999814702573
 20
-297.9999024703011
  0
LWPOLYLINE
  5
197
100
AcDbEntity
  8
0
  6
ByLayer
 62
  256
370
   -1
100
AcDbPolyline
 90
    2
 70
    0
 43
0
 10
-144.9999814702573
 20
-297.9999024703011
 10
-83.2999815056304
 20
-297.9999594491073
  0
LWPOLYLINE
  5
198
100
AcDbEntity
  8
0
  6
ByLayer
 62
  256
370
   -1
100
AcDbPolyline
 90
    2
 70
    0
 43
0
 10
-83.29999998931291
 20
-307.9999852263447
 10
-80.2999999912038
 20
-307.9999879965309
  0
LWPOLYLINE
  5
199
100
AcDbEntity
  8
0
  6
ByLayer
 62
  256
370
   -1
100
AcDbPolyline
 90
    2
 70
    0
 43
0
 10
-70.29999999752039
 20
-307.9999972305903
 10
-67.30000000000001
 20
-308
  0
LWPOLYLINE
  5
19A
100
AcDbEntity
  8
0
  6
ByLayer
 62
  256
370
   -1
100
AcDbPolyline
 90
    2
 70
    0
 43
0
 10
-70.29999999752039
 20
-307.9999972305903
 10
-70.30000917683131
 20
-308.9999994313405
  0
LWPOLYLINE
  5
19B
100
AcDbEntity
  8
0
  6
ByLayer
 62
  256
370
   -1
100
AcDbPolyline
 90
    2
 70
    0
 43
0
 10
-158.000041901656
 20
-307.9999162373681
 10
-158.0000447304409
 20
-308.9999162360475
  0
LWPOLYLINE
  5
19C
100
AcDbEntity
  8
0
  6
ByLayer
 62
  256
370
   -1
100
AcDbPolyline
 90
    2
 70
    0
 43
0
 10
-78.3000132181788
 20
-310.9999898377743
 10
-72.30001322218561
 20
-310.9999953793139
  0
LWPOLYLINE
  5
19D
100
AcDbEntity
  8
0
  6
ByLayer
 62
  256
370
   -1
100
AcDbPolyline
 90
    2
 70
    0
 43
0
 10
-67.30000000000001
 20
-308
 10
-67.29992606350541
 20
-267.9999484734163
  0
LWPOLYLINE
  5
19E
100
AcDbEntity
  8
0
  6
ByLayer
 62
  256
370
   -1
100
AcDbPolyline
 90
    2
 70
    0
 43
0
 10
-148.000039131726
 20
-307.9999254730205
 10
-148.000041990247
 20
-308.9999254774328
  0
LWPOLYLINE
  5
19F
100
AcDbEntity
  8
0
  6
ByLayer
 62
  256
370
   -1
100
AcDbPolyline
 90
    2
 70
    0
 43
0
 10
-147.9999260162019
 20
-267.9998544768193
 10
-144.9999228187015
 20
-267.9998187493683
  0
ARC
  5
1A0
100
AcDbEntity
  8
0
  6
ByLayer
 62
  256
370
   -1
100
AcDbCircle
 10
-72.30000000000001
 20
-309
 40
1.99999537935758
100
AcDbArc
 50
269.9996212114111
 51
0
  0
ARC
  5
1A1
100
AcDbEntity
  8
0
  6
ByLayer
 62
  256
370
   -1
100
AcDbCircle
 10
-78.30000000000001
 20
-308.9999999999999
 40
2.000009162898944
100
AcDbArc
 50
180
 51
269.9996213251462
  0
LINE
  5
1A2
100
AcDbEntity
  8
0
  6
ByLayer
 62
  256
370
   -1
100
AcDbLine
 10
-80.30000916289899
 20
-308.9999999999999
 11
-80.30000000000001
 21
-308
  0
LINE
  5
1A3
100
AcDbEntity
  8
0
  6
ByLayer
 62
  256
370
   -1
100
AcDbLine
 10
-83.30000000000001
 20
-308
 11
-83.30000000000001
 21
-303
  0
LINE
  5
1A4
100
AcDbEntity
  8
0
  6
ByLayer
 62
  256
370
   -1
100
AcDbLine
 10
-83.30000000000001
 20
-303
 11
-145
 21
-303
  0
LINE
  5
1A5
100
AcDbEntity
  8
0
  6
ByLayer
 62
  256
370
   -1
100
AcDbLine
 10
-145
 20
-303
 11
-145
 21
-308
  0
LINE
  5
1A6
100
AcDbEntity
  8
0
  6
ByLayer
 62
  256
370
   -1
100
AcDbLine
 10
-145
 20
-308
 11
-148
 21
-308
  0
ARC
  5
1A7
100
AcDbEntity
  8
0
  6
ByLayer
 62
  256
370
   -1
100
AcDbCircle
 10
-150
 20
-309
 40
2
100
AcDbArc
 50
270
 51
0
  0
LINE
  5
1A8
100
AcDbEntity
  8
0
  6
ByLayer
 62
  256
370
   -1
100
AcDbLine
 10
-150
 20
-311
 11
-156
 21
-311
  0
ARC
  5
1A9
100
AcDbEntity
  8
0
  6
ByLayer
 62
  256
370
   -1
100
AcDbCircle
 10
-156
 20
-309
 40
2
100
AcDbArc
 50
180
 51
270
  0
LINE
  5
1AA
100
AcDbEntity
  8
0
  6
ByLayer
 62
  256
370
   -1
100
AcDbLine
 10
-158
 20
-308
 11
-161
 21
-308
  0
LINE
  5
1AB
100
AcDbEntity
  8
0
  6
ByLayer
 62
  256
370
   -1
100
AcDbLine
 10
-161
 20
-308
 11
-161
 21
-268
  0
LINE
  5
1AC
100
AcDbEntity
  8
0
  6
ByLayer
 62
  256
370
   -1
100
AcDbLine
 10
-158
 20
-268
 11
-158
 21
-267
  0
ARC
  5
1AD
100
AcDbEntity
  8
0
  6
ByLayer
 62
  256
370
   -1
100
AcDbCircle
 10
-156
 20
-267
 40
2
100
AcDbArc
 50
90
 51
180
  0
LINE
  5
1AE
100
AcDbEntity
  8
0
  6
ByLayer
 62
  256
370
   -1
100
AcDbLine
 10
-156
 20
-265
 11
-150
 21
-265
  0
ARC
  5
1AF
100
AcDbEntity
  8
0
  6
ByLayer
 62
  256
370
   -1
100
AcDbCircle
 10
-150
 20
-267
 40
2
100
AcDbArc
 50
0
 51
90
  0
LINE
  5
1B0
100
AcDbEntity
  8
0
  6
ByLayer
 62
  256
370
   -1
100
AcDbLine
 10
-148
 20
-267.9999999999999
 11
-148
 21
-266.9999999999999
  0
LINE
  5
1B1
100
AcDbEntity
  8
0
  6
ByLayer
 62
  256
370
   -1
100
AcDbLine
 10
-145
 20
-267.9999999999999
 11
-145
 21
-272.9999999999999
  0
LINE
  5
1B2
100
AcDbEntity
  8
0
  6
ByLayer
 62
  256
370
   -1
100
AcDbLine
 10
-145
 20
-273
 11
-83.30000000000001
 21
-273
  0
LINE
  5
1B3
100
AcDbEntity
  8
0
  6
ByLayer
 62
  256
370
   -1
100
AcDbLine
 10
-83.30000000000001
 20
-273
 11
-83.30000000000001
 21
-268
  0
LINE
  5
1B4
100
AcDbEntity
  8
0
  6
ByLayer
 62
  256
370
   -1
100
AcDbLine
 10
-83.30000000000001
 20
-268
 11
-80.30000000000001
 21
-268
  0
LINE
  5
1B5
100
AcDbEntity
  8
0
  6
ByLayer
 62
  256
370
   -1
100
AcDbLine
 10
-80.30000000000001
 20
-268
 11
-80.30000000000001
 21
-267
  0
ARC
  5
1B6
100
AcDbEntity
  8
0
  6
ByLayer
 62
  256
370
   -1
100
AcDbCircle
 10
-78.30000000000001
 20
-267
 40
2
100
AcDbArc
 50
90
 51
180
  0
LINE
  5
1B7
100
AcDbEntity
  8
0
  6
ByLayer
 62
  256
370
   -1
100
AcDbLine
 10
-78.30000000000001
 20
-264.9999999999999
 11
-72.30000000000001
 21
-264.9999999999999
  0
ARC
  5
1B8
100
AcDbEntity
  8
0
  6
ByLayer
 62
  256
370
   -1
100
AcDbCircle
 10
-72.30000000000001
 20
-266.9999999999999
 40
2
100
AcDbArc
 50
0
 51
90
  0
LINE
  5
1B9
100
AcDbEntity
  8
0
  6
ByLayer
 62
  256
370
   -1
100
AcDbLine
 10
-70.30000000000001
 20
-267.9999999999999
 11
-70.30000000000001
 21
-266.9999999999999
  0
CIRCLE
  5
1BA
100
AcDbEntity
  8
0
  6
ByLayer
 62
  256
370
   -1
100
AcDbCircle
 10
-152.9999925819766
 20
-299.9999253106018
 40
1.500007419882908
  0
CIRCLE
  5
1BB
100
AcDbEntity
  8
0
  6
ByLayer
 62
  256
370
   -1
100
AcDbCircle
 10
-152.9999528131435
 20
-282.4998492611064
 40
1.499999999263267
  0
ARC
  5
1BC
100
AcDbEntity
  8
0
  6
ByLayer
 62
  256
370
   -1
100
AcDbCircle
 10
-73.80000000000001
 20
-300
 40
1.500014788692636
100
AcDbArc
 50
270.0000000000022
 51
89.99999999999775
  0
ARC
  5
1BD
100
AcDbEntity
  8
0
  6
ByLayer
 62
  256
370
   -1
100
AcDbCircle
 10
-76.80000000000001
 20
-299.9999999999999
 40
1.5
100
AcDbArc
 50
90.00000000000225
 51
269.9999999999978
  0
ARC
  5
1BE
100
AcDbEntity
  8
0
  6
ByLayer
 62
  256
370
   -1
100
AcDbCircle
 10
-73.80000000000001
 20
-282.5
 40
1.500047138500584
100
AcDbArc
 50
270
 51
89.99999999999775
  0
ARC
  5
1BF
100
AcDbEntity
  8
0
  6
ByLayer
 62
  256
370
   -1
100
AcDbCircle
 10
-76.80000000000001
 20
-282.5
 40
1.5
100
AcDbArc
 50
90
 51
270
  0
LINE
  5
1C0
100
AcDbEntity
  8
0
  6
ByLayer
 62
  256
370
   -1
100
AcDbLine
 10
-73.80000000000001
 20
-281
 11
-76.80056137762489
 21
-281.0000001050573
  0
LINE
  5
1C1
100
AcDbEntity
  8
0
  6
ByLayer
 62
  256
370
   -1
100
AcDbLine
 10
-76.80000000000001
 20
-283.9999137842082
 11
-73.80000000000001
 21
-284.0000471385031
  0
LINE
  5
1C2
100
AcDbEntity
  8
0
  6
ByLayer
 62
  256
370
   -1
100
AcDbLine
 10
-76.80000000000001
 20
-298.4999219149336
 11
-73.80000000000001
 21
-298.5
  0
LINE
  5
1C3
100
AcDbEntity
  8
0
  6
ByLayer
 62
  256
370
   -1
100
AcDbLine
 10
-73.80000000000001
 20
-301.5000147887076
 11
-76.80000000000001
 21
-301.5
  0
LINE
  5
1C4
100
AcDbEntity
  8
0
  6
ByLayer
 62
  256
370
   -1
100
AcDbLine
 10
100.5000002657525
 20
51.99999999999999
 11
100.5000002657525
 21
50.99999999999999
  0
LINE
  5
1C5
100
AcDbEntity
  8
0
  6
ByLayer
 62
  256
370
   -1
100
AcDbLine
 10
98.50000026575253
 20
48.99999999999999
 11
92.50000026575253
 21
48.99999999999999
  0
LINE
  5
1C6
100
AcDbEntity
  8
0
  6
ByLayer
 62
  256
370
   -1
100
AcDbLine
 10
90.50000026575253
 20
50.99999999999999
 11
90.50000026575253
 21
51.99999999999999
  0
LINE
  5
1C7
100
AcDbEntity
  8
0
  6
ByLayer
 62
  256
370
   -1
100
AcDbLine
 10
90.50000026575253
 20
51.99999999999999
 11
28.50000026575254
 21
51.99999999999999
  0
LINE
  5
1C8
100
AcDbEntity
  8
0
  6
ByLayer
 62
  256
370
   -1
100
AcDbLine
 10
28.50000026575254
 20
51.99999999999999
 11
28.50000026575254
 21
50.99999999999999
  0
LINE
  5
1C9
100
AcDbEntity
  8
0
  6
ByLayer
 62
  256
370
   -1
100
AcDbLine
 10
26.50000026575254
 20
48.99999999999999
 11
20.50000026575254
 21
48.99999999999999
  0
LINE
  5
1CA
100
AcDbEntity
  8
0
  6
ByLayer
 62
  256
370
   -1
100
AcDbLine
 10
18.50000026575254
 20
50.99999999999999
 11
18.50000026575254
 21
51.99999999999999
  0
ARC
  5
1CB
100
AcDbEntity
  8
0
  6
ByLayer
 62
  256
370
   -1
100
AcDbCircle
 10
98.50000026575253
 20
50.99999999999999
 40
2
100
AcDbArc
 50
270
 51
360
  0
ARC
  5
1CC
100
AcDbEntity
  8
0
  6
ByLayer
 62
  256
370
   -1
100
AcDbCircle
 10
92.50000026575253
 20
51.00000000000008
 40
2
100
AcDbArc
 50
180
 51
270
  0
ARC
  5
1CD
100
AcDbEntity
  8
0
  6
ByLayer
 62
  256
370
   -1
100
AcDbCircle
 10
26.50000026575254
 20
51.00000000000008
 40
1.999999999999996
100
AcDbArc
 50
269.9999999999999
 51
360
  0
ARC
  5
1CE
100
AcDbEntity
  8
0
  6
ByLayer
 62
  256
370
   -1
100
AcDbCircle
 10
20.50000026575254
 20
51.00000000000008
 40
2.000000000000057
100
AcDbArc
 50
180.0000000000016
 51
270
  0
LINE
  5
1CF
100
AcDbEntity
  8
0
  6
ByLayer
 62
  256
370
   -1
100
AcDbLine
 10
100.5000002657525
 20
51.99999999999999
 11
133.0000001328763
 21
51.99999999999996
  0
LINE
  5
1D0
100
AcDbEntity
  8
0
  6
ByLayer
 62
  256
370
   -1
100
AcDbLine
 10
18.50000026575254
 20
51.99999999999999
 11
-13.99999986712368
 21
52.00000000000001
  0
LINE
  5
1D1
100
AcDbEntity
  8
0
  6
ByLayer
 62
  256
370
   -1
100
AcDbLine
 10
100.5000001328763
 20
152
 11
100.5000001328763
 21
153
  0
LINE
  5
1D2
100
AcDbEntity
  8
0
  6
ByLayer
 62
  256
370
   -1
100
AcDbLine
 10
98.50000013287627
 20
155
 11
92.50000013287627
 21
155
  0
LINE
  5
1D3
100
AcDbEntity
  8
0
  6
ByLayer
 62
  256
370
   -1
100
AcDbLine
 10
90.50000013287627
 20
153
 11
90.50000013287627
 21
152
  0
LINE
  5
1D4
100
AcDbEntity
  8
0
  6
ByLayer
 62
  256
370
   -1
100
AcDbLine
 10
90.50000013287627
 20
152
 11
28.5000001328763
 21
152
  0
LINE
  5
1D5
100
AcDbEntity
  8
0
  6
ByLayer
 62
  256
370
   -1
100
AcDbLine
 10
28.5000001328763
 20
152
 11
28.5000001328763
 21
153
  0
LINE
  5
1D6
100
AcDbEntity
  8
0
  6
ByLayer
 62
  256
370
   -1
100
AcDbLine
 10
26.5000001328763
 20
155
 11
20.5000001328763
 21
155
  0
LINE
  5
1D7
100
AcDbEntity
  8
0
  6
ByLayer
 62
  256
370
   -1
100
AcDbLine
 10
18.50000013287634
 20
153
 11
18.50000013287634
 21
152
  0
ARC
  5
1D8
100
AcDbEntity
  8
0
  6
ByLayer
 62
  256
370
   -1
100
AcDbCircle
 10
98.50000013287627
 20
153
 40
2
100
AcDbArc
 50
360
 51
90
  0
ARC
  5
1D9
100
AcDbEntity
  8
0
  6
ByLayer
 62
  256
370
   -1
100
AcDbCircle
 10
92.50000013287627
 20
152.9999999999999
 40
2
100
AcDbArc
 50
90
 51
180
  0
ARC
  5
1DA
100
AcDbEntity
  8
0
  6
ByLayer
 62
  256
370
   -1
100
AcDbCircle
 10
26.5000001328763
 20
152.9999999999999
 40
1.999999999999996
100
AcDbArc
 50
360
 51
90.0000000000001
  0
ARC
  5
1DB
100
AcDbEntity
  8
0
  6
ByLayer
 62
  256
370
   -1
100
AcDbCircle
 10
20.5000001328763
 20
152.9999999999999
 40
2.000000000000057
100
AcDbArc
 50
90
 51
179.9999999999984
  0
ARC
  5
1DC
100
AcDbEntity
  8
0
  6
ByLayer
 62
  256
370
   -1
100
AcDbCircle
 10
32.50000013287625
 20
122
 40
5.000000000000004
100
AcDbArc
 50
360
 51
90
  0
ARC
  5
1DD
100
AcDbEntity
  8
0
  6
ByLayer
 62
  256
370
   -1
100
AcDbCircle
 10
34.50000013287625
 20
115.1
 40
3
100
AcDbArc
 50
270
 51
360
  0
LINE
  5
1DE
100
AcDbEntity
  8
0
  6
ByLayer
 62
  256
370
   -1
100
AcDbLine
 10
37.50000013287627
 20
122
 11
37.50000013287625
 21
115.1
  0
LINE
  5
1DF
100
AcDbEntity
  8
0
  6
ByLayer
 62
  256
370
   -1
100
AcDbLine
 10
32.50000013287625
 20
127
 11
14.50000013287625
 21
127
  0
ARC
  5
1E0
100
AcDbEntity
  8
0
  6
ByLayer
 62
  256
370
   -1
100
AcDbCircle
 10
14.50000013287625
 20
122
 40
5
100
AcDbArc
 50
90
 51
180
  0
LINE
  5
1E1
100
AcDbEntity
  8
0
  6
ByLayer
 62
  256
370
   -1
100
AcDbLine
 10
9.500000132876245
 20
122
 11
9.500000132876245
 21
115.1
  0
ARC
  5
1E2
100
AcDbEntity
  8
0
  6
ByLayer
 62
  256
370
   -1
100
AcDbCircle
 10
12.50000013287625
 20
115.1
 40
3.000000000000001
100
AcDbArc
 50
180
 51
270
  0
LINE
  5
1E3
100
AcDbEntity
  8
0
  6
ByLayer
 62
  256
370
   -1
100
AcDbLine
 10
12.50000013287625
 20
112.1
 11
34.50000013287625
 21
112.1
  0
CIRCLE
  5
1E4
100
AcDbEntity
  8
0
  6
ByLayer
 62
  256
370
   -1
100
AcDbCircle
 10
98.50000013287624
 20
133.7
 40
8
  0
LINE
  5
1E5
100
AcDbEntity
  8
0
  6
ByLayer
 62
  256
370
   -1
100
AcDbLine
 10
18.50000013287634
 20
152
 11
-13.99999986712368
 21
152
  0
LINE
  5
1E6
100
AcDbEntity
  8
0
  6
ByLayer
 62
  256
370
   -1
100
AcDbLine
 10
100.5000001328763
 20
152
 11
133.0000001328763
 21
152
  0
LINE
  5
1E7
100
AcDbEntity
  8
0
  6
ByLayer
 62
  256
370
   -1
100
AcDbLine
 10
133.0000001328763
 20
51.99999999999996
 11
133.0000001328763
 21
152
  0
LINE
  5
1E8
100
AcDbEntity
  8
0
  6
ByLayer
 62
  256
370
   -1
100
AcDbLine
 10
-13.99999986712368
 20
152
 11
-13.99999986712368
 21
52.00000000000001
  0
ENDSEC
  0
SECTION
  2
OBJECTS
  0
DICTIONARY
  5
C
330
0
100
AcDbDictionary
281
    1
  3
ACAD_GROUP
350
D
  0
DICTIONARY
  5
D
330
C
100
AcDbDictionary
281
    1
  0
ENDSEC
  0
EOF
