  0
SECTION
  2
HEADER
  9
$ACADVER
  1
AC1015
  9
$ACADMAINTVER
 70
     6
  9
$DWGCODEPAGE
  3
ANSI_949
  9
$INSBASE
 10
0.0
 20
0.0
 30
0.0
  9
$EXTMIN
 10
0.0
 20
0.0
 30
0.0
  9
$EXTMAX
 10
1189.0
 20
841.0
 30
0.0
  9
$LIMMIN
 10
0.0
 20
0.0
  9
$LIMMAX
 10
1189.0
 20
841.0
  9
$ORTHOMODE
 70
     0
  9
$REGENMODE
 70
     1
  9
$FILLMODE
 70
     1
  9
$QTEXTMODE
 70
     0
  9
$MIRRTEXT
 70
     1
  9
$LTSCALE
 40
1.0
  9
$ATTMODE
 70
     1
  9
$TEXTSIZE
 40
3.5
  9
$TRACEWID
 40
1.0
  9
$TEXTSTYLE
  7
Standard
  9
$CLAYER
  8
0
  9
$CELTYPE
  6
ByLayer
  9
$CECOLOR
 62
   256
  9
$CELTSCALE
 40
1.0
  9
$DISPSILH
 70
     0
  9
$DIMSCALE
 40
1.0
  9
$DIMASZ
 40
3.556
  9
$DIMEXO
 40
1.0
  9
$DIMDLI
 40
3.75
  9
$DIMRND
 40
0.0
  9
$DIMDLE
 40
0.0
  9
$DIMEXE
 40
1.0
  9
$DIMTP
 40
0.0
  9
$DIMTM
 40
0.0
  9
$DIMTXT
 40
3.5
  9
$DIMCEN
 40
2.5
  9
$DIMTSZ
 40
0.0
  9
$DIMTOL
 70
     0
  9
$DIMLIM
 70
     0
  9
$DIMTIH
 70
     1
  9
$DIMTOH
 70
     1
  9
$DIMSE1
 70
     0
  9
$DIMSE2
 70
     0
  9
$DIMTAD
 70
     1
  9
$DIMZIN
 70
     1
  9
$DIMBLK
  1

  9
$DIMASO
 70
     1
  9
$DIMSHO
 70
     1
  9
$DIMPOST
  1

  9
$DIMAPOST
  1

  9
$DIMALT
 70
     0
  9
$DIMALTD
 70
     3
  9
$DIMALTF
 40
0.0393700787
  9
$DIMLFAC
 40
1.0
  9
$DIMTOFL
 70
     1
  9
$DIMTVP
 40
0.0
  9
$DIMTIX
 70
     0
  9
$DIMSOXD
 70
     0
  9
$DIMSAH
 70
     0
  9
$DIMBLK1
  1

  9
$DIMBLK2
  1

  9
$DIMSTYLE
  2
ISO-25
  9
$DIMCLRD
 70
     0
  9
$DIMCLRE
 70
     0
  9
$DIMCLRT
 70
     0
  9
$DIMTFAC
 40
1.0
  9
$DIMGAP
 40
1.524
  9
$DIMJUST
 70
     0
  9
$DIMSD1
 70
     0
  9
$DIMSD2
 70
     0
  9
$DIMTOLJ
 70
     0
  9
$DIMTZIN
 70
     1
  9
$DIMALTZ
 70
     0
  9
$DIMALTTZ
 70
     0
  9
$DIMUPT
 70
     0
  9
$DIMDEC
 70
     2
  9
$DIMTDEC
 70
     2
  9
$DIMALTU
 70
     2
  9
$DIMALTTD
 70
     3
  9
$DIMTXSTY
  7
Standard
  9
$DIMAUNIT
 70
     0
  9
$DIMADEC
 70
     0
  9
$DIMALTRND
 40
0.0
  9
$DIMAZIN
 70
     0
  9
$DIMDSEP
 70
    44
  9
$DIMATFIT
 70
     3
  9
$DIMFRAC
 70
     0
  9
$DIMLDRBLK
  1

  9
$DIMLUNIT
 70
     2
  9
$DIMLWD
 70
    -2
  9
$DIMLWE
 70
    -2
  9
$DIMTMOVE
 70
     0
  9
$LUNITS
 70
     2
  9
$LUPREC
 70
     4
  9
$SKETCHINC
 40
1.0
  9
$FILLETRAD
 40
10.0
  9
$AUNITS
 70
     0
  9
$AUPREC
 70
     0
  9
$MENU
  1
.
  9
$ELEVATION
 40
0.0
  9
$PELEVATION
 40
0.0
  9
$THICKNESS
 40
0.0
  9
$LIMCHECK
 70
     0
  9
$CHAMFERA
 40
0.0
  9
$CHAMFERB
 40
0.0
  9
$CHAMFERC
 40
0.0
  9
$CHAMFERD
 40
0.0
  9
$SKPOLY
 70
     0
  9
$TDCREATE
 40
2459213.723646458
  9
$TDUCREATE
 40
2459213.348646458
  9
$TDUPDATE
 40
2459213.723652257
  9
$TDUUPDATE
 40
2459213.348652257
  9
$TDINDWG
 40
0.0000000116
  9
$TDUSRTIMER
 40
0.0000000116
  9
$USRTIMER
 70
     1
  9
$ANGBASE
 50
0.0
  9
$ANGDIR
 70
     0
  9
$PDMODE
 70
     0
  9
$PDSIZE
 40
-1.0
  9
$PLINEWID
 40
0.0
  9
$SPLFRAME
 70
     0
  9
$SPLINETYPE
 70
     6
  9
$SPLINESEGS
 70
     8
  9
$HANDSEED
  5
197
  9
$SURFTAB1
 70
     6
  9
$SURFTAB2
 70
     6
  9
$SURFTYPE
 70
     6
  9
$SURFU
 70
     6
  9
$SURFV
 70
     6
  9
$UCSBASE
  2

  9
$UCSNAME
  2

  9
$UCSORG
 10
0.0
 20
0.0
 30
0.0
  9
$UCSXDIR
 10
1.0
 20
0.0
 30
0.0
  9
$UCSYDIR
 10
0.0
 20
1.0
 30
0.0
  9
$UCSORTHOREF
  2

  9
$UCSORTHOVIEW
 70
     0
  9
$UCSORGTOP
 10
0.0
 20
0.0
 30
0.0
  9
$UCSORGBOTTOM
 10
0.0
 20
0.0
 30
0.0
  9
$UCSORGLEFT
 10
0.0
 20
0.0
 30
0.0
  9
$UCSORGRIGHT
 10
0.0
 20
0.0
 30
0.0
  9
$UCSORGFRONT
 10
0.0
 20
0.0
 30
0.0
  9
$UCSORGBACK
 10
0.0
 20
0.0
 30
0.0
  9
$PUCSBASE
  2

  9
$PUCSNAME
  2

  9
$PUCSORG
 10
0.0
 20
0.0
 30
0.0
  9
$PUCSXDIR
 10
1.0
 20
0.0
 30
0.0
  9
$PUCSYDIR
 10
0.0
 20
1.0
 30
0.0
  9
$PUCSORTHOREF
  2

  9
$PUCSORTHOVIEW
 70
     0
  9
$PUCSORGTOP
 10
0.0
 20
0.0
 30
0.0
  9
$PUCSORGBOTTOM
 10
0.0
 20
0.0
 30
0.0
  9
$PUCSORGLEFT
 10
0.0
 20
0.0
 30
0.0
  9
$PUCSORGRIGHT
 10
0.0
 20
0.0
 30
0.0
  9
$PUCSORGFRONT
 10
0.0
 20
0.0
 30
0.0
  9
$PUCSORGBACK
 10
0.0
 20
0.0
 30
0.0
  9
$USERI1
 70
     0
  9
$USERI2
 70
     0
  9
$USERI3
 70
     0
  9
$USERI4
 70
     0
  9
$USERI5
 70
     0
  9
$USERR1
 40
0.0
  9
$USERR2
 40
0.0
  9
$USERR3
 40
0.0
  9
$USERR4
 40
0.0
  9
$USERR5
 40
0.0
  9
$WORLDVIEW
 70
     1
  9
$SHADEDGE
 70
     3
  9
$SHADEDIF
 70
    70
  9
$TILEMODE
 70
     0
  9
$MAXACTVP
 70
    64
  9
$PINSBASE
 10
0.0
 20
0.0
 30
0.0
  9
$PLIMCHECK
 70
     0
  9
$PEXTMIN
 10
0.0
 20
0.0
 30
0.0
  9
$PEXTMAX
 10
1189.0
 20
841.0
 30
0.0
  9
$PLIMMIN
 10
0.0
 20
0.0
  9
$PLIMMAX
 10
1189.0
 20
841.0
  9
$UNITMODE
 70
     0
  9
$VISRETAIN
 70
     1
  9
$PLINEGEN
 70
     0
  9
$PSLTSCALE
 70
     1
  9
$TREEDEPTH
 70
  3020
  9
$CMLSTYLE
  2
Standard
  9
$CMLJUST
 70
     0
  9
$CMLSCALE
 40
20.0
  9
$PROXYGRAPHICS
 70
     1
  9
$MEASUREMENT
 70
     1
  9
$CELWEIGHT
370
    -1
  9
$ENDCAPS
280
     0
  9
$JOINSTYLE
280
     0
  9
$LWDISPLAY
290
     1
  9
$INSUNITS
 70
     4
  9
$HYPERLINKBASE
  1

  9
$STYLESHEET
  1

  9
$XEDIT
290
     1
  9
$CEPSNTYPE
380
     0
  9
$PSTYLEMODE
290
     1
  9
$FINGERPRINTGUID
  2
{02A4276E-608A-4760-99D4-507478DF26B9}
  9
$VERSIONGUID
  2
{FAEB1C32-E019-11D5-929B-00C0DF256EC4}
  9
$EXTNAMES
290
     1
  9
$PSVPSCALE
 40
0.0
  9
$OLESTARTUP
290
     0
  0
ENDSEC
  0
SECTION
  2
CLASSES
  0
CLASS
  1
ACDBDICTIONARYWDFLT
  2
AcDbDictionaryWithDefault
  3
ObjectDBX Classes
 90
        0
280
     0
281
     0
  0
CLASS
  1
VISUALSTYLE
  2
AcDbVisualStyle
  3
ObjectDBX Classes
 90
     4095
280
     0
281
     0
  0
CLASS
  1
MATERIAL
  2
AcDbMaterial
  3
ObjectDBX Classes
 90
     1153
280
     0
281
     0
  0
CLASS
  1
SCALE
  2
AcDbScale
  3
ObjectDBX Classes
 90
     1153
280
     0
281
     0
  0
CLASS
  1
TABLESTYLE
  2
AcDbTableStyle
  3
ObjectDBX Classes
 90
     4095
280
     0
281
     0
  0
CLASS
  1
MLEADERSTYLE
  2
AcDbMLeaderStyle
  3
ACDB_MLEADERSTYLE_CLASS
 90
     4095
280
     0
281
     0
  0
CLASS
  1
SUN
  2
AcDbSun
  3
SCENEOE
 90
     1153
280
     0
281
     0
  0
CLASS
  1
ACDBPLACEHOLDER
  2
AcDbPlaceHolder
  3
ObjectDBX Classes
 90
        0
280
     0
281
     0
  0
CLASS
  1
LAYOUT
  2
AcDbLayout
  3
ObjectDBX Classes
 90
        0
280
     0
281
     0
  0
ENDSEC
  0
SECTION
  2
TABLES
  0
TABLE
  2
VPORT
  5
8
330
0
100
AcDbSymbolTable
 70
     1
  0
VPORT
  5
29
330
8
100
AcDbSymbolTableRecord
100
AcDbViewportTableRecord
  2
*Active
 70
     0
 10
0.0
 20
0.0
 11
1.0
 21
1.0
 12
594.5
 22
420.5
 13
0.0
 23
0.0
 14
10.0
 24
10.0
 15
10.0
 25
10.0
 16
0.0
 26
0.0
 36
1.0
 17
0.0
 27
0.0
 37
0.0
 40
841.0
 41
1.4137931034
 42
50.0
 43
0.0
 44
0.0
 50
0.0
 51
0.0
 71
     0
 72
  2000
 73
     1
 74
     3
 75
     0
 76
     0
 77
     0
 78
     0
281
     0
 65
     1
110
0.0
120
0.0
130
0.0
111
1.0
121
0.0
131
0.0
112
0.0
122
1.0
132
0.0
 79
     0
146
0.0
  0
ENDTAB
  0
TABLE
  2
LTYPE
  5
5
330
0
100
AcDbSymbolTable
 70
     6
  0
LTYPE
  5
14
330
5
100
AcDbSymbolTableRecord
100
AcDbLinetypeTableRecord
  2
ByBlock
 70
     0
  3

 72
    65
 73
     0
 40
0.0
  0
LTYPE
  5
15
330
5
100
AcDbSymbolTableRecord
100
AcDbLinetypeTableRecord
  2
ByLayer
 70
     0
  3

 72
    65
 73
     0
 40
0.0
  0
LTYPE
  5
16
330
5
100
AcDbSymbolTableRecord
100
AcDbLinetypeTableRecord
  2
Continuous
 70
     0
  3
Solid line
 72
    65
 73
     0
 40
0.0
  0
LTYPE
  5
6E
330
5
100
AcDbSymbolTableRecord
100
AcDbLinetypeTableRecord
  2
HIDDEN
 70
     0
  3
Hidden __ __ __ __ __ __ __ __ __ __ __ __ __ __
 72
    65
 73
     2
 40
1.905
 49
1.27
 74
     0
 49
-0.635
 74
     0
  0
LTYPE
  5
6F
330
5
100
AcDbSymbolTableRecord
100
AcDbLinetypeTableRecord
  2
PHANTOM
 70
     0
  3
Phantom ______  __  __  ______  __  __  ______
 72
    65
 73
     6
 40
12.7
 49
6.35
 74
     0
 49
-1.27
 74
     0
 49
1.27
 74
     0
 49
-1.27
 74
     0
 49
1.27
 74
     0
 49
-1.27
 74
     0
  0
LTYPE
  5
70
330
5
100
AcDbSymbolTableRecord
100
AcDbLinetypeTableRecord
  2
CENTER
 70
     0
  3
Center ____ _ ____ _ ____ _ ____ _ ____ _ ____
 72
    65
 73
     4
 40
10.16
 49
6.35
 74
     0
 49
-1.27
 74
     0
 49
1.27
 74
     0
 49
-1.27
 74
     0
  0
LTYPE
  5
71
330
5
100
AcDbSymbolTableRecord
100
AcDbLinetypeTableRecord
  2
CENTERX2
 70
     0
  3
Center (2x) ________  __  ________  __  _____
 72
    65
 73
     4
 40
20.32
 49
12.7
 74
     0
 49
-2.54
 74
     0
 49
2.54
 74
     0
 49
-2.54
 74
     0
  0
LTYPE
  5
72
330
5
100
AcDbSymbolTableRecord
100
AcDbLinetypeTableRecord
  2
DOT2
 70
     0
  3
Dot (.5x) ........................................
 72
    65
 73
     2
 40
0.635
 49
0.0
 74
     0
 49
-0.635
 74
     0
  0
ENDTAB
  0
TABLE
  2
LAYER
  5
2
330
0
100
AcDbSymbolTable
 70
     8
  0
LAYER
  5
10
330
2
100
AcDbSymbolTableRecord
100
AcDbLayerTableRecord
  2
0
 70
     0
 62
     7
  6
Continuous
370
    -3
390
F
  0
LAYER
  5
73
330
2
100
AcDbSymbolTableRecord
100
AcDbLayerTableRecord
  2
SLD-0_0
 70
     0
 62
   179
  6
Continuous
370
    -3
390
F
  0
LAYER
  5
74
330
2
100
AcDbSymbolTableRecord
100
AcDbLayerTableRecord
  2
SLD-0
 70
     0
 62
   179
  6
Continuous
370
    -3
390
F
  0
LAYER
  5
75
330
2
100
AcDbSymbolTableRecord
100
AcDbLayerTableRecord
  2
OUT
 70
     0
 62
     5
  6
Continuous
370
    -3
390
F
  0
LAYER
  5
76
330
2
100
AcDbSymbolTableRecord
100
AcDbLayerTableRecord
  2
HOLE
 70
     0
 62
     3
  6
Continuous
370
    -3
390
F
  0
LAYER
  5
77
330
2
100
AcDbSymbolTableRecord
100
AcDbLayerTableRecord
  2
TEXT
 70
     0
 62
     6
  6
Continuous
370
    -3
390
F
  0
LAYER
  5
78
330
2
100
AcDbSymbolTableRecord
100
AcDbLayerTableRecord
  2
TEXT2
 70
     0
 62
     4
  6
Continuous
370
    -3
390
F
  0
LAYER
  5
79
330
2
100
AcDbSymbolTableRecord
100
AcDbLayerTableRecord
  2
LINE
 70
     0
 62
     2
  6
Continuous
370
    -3
390
F
  0
ENDTAB
  0
TABLE
  2
STYLE
  5
3
330
0
100
AcDbSymbolTable
 70
     2
  0
STYLE
  5
11
330
3
100
AcDbSymbolTableRecord
100
AcDbTextStyleTableRecord
  2
Standard
 70
     0
 40
0.0
 41
1.0
 50
0.0
 71
     0
 42
3.5
  3
txt
  4

  0
STYLE
  5
195
330
3
100
AcDbSymbolTableRecord
100
AcDbTextStyleTableRecord
  2
SLDTEXTSTYLE0
 70
     0
 40
0.0
 41
0.638185654
 50
0.0
 71
     0
 42
3.5
  3
TXT
  4

  0
ENDTAB
  0
TABLE
  2
VIEW
  5
6
330
0
100
AcDbSymbolTable
 70
     0
  0
ENDTAB
  0
TABLE
  2
UCS
  5
7
330
0
100
AcDbSymbolTable
 70
     0
  0
ENDTAB
  0
TABLE
  2
APPID
  5
9
330
0
100
AcDbSymbolTable
 70
     1
  0
APPID
  5
12
330
9
100
AcDbSymbolTableRecord
100
AcDbRegAppTableRecord
  2
ACAD
 70
     0
  0
ENDTAB
  0
TABLE
  2
DIMSTYLE
  5
A
330
0
100
AcDbSymbolTable
 70
     1
100
AcDbDimStyleTable
  0
DIMSTYLE
105
27
330
A
100
AcDbSymbolTableRecord
100
AcDbDimStyleTableRecord
  2
ISO-25
 70
     0
 41
2.5
 42
0.625
 43
3.75
 44
1.25
 73
     0
 74
     0
 77
     1
 78
     8
140
2.5
141
2.5
143
0.0393700787
147
0.625
171
     3
172
     1
178
     0
271
     2
272
     2
274
     3
278
    44
283
     0
284
     8
340
11
  0
ENDTAB
  0
TABLE
  2
BLOCK_RECORD
  5
1
330
0
100
AcDbSymbolTable
 70
     1
  0
BLOCK_RECORD
  5
1F
330
1
100
AcDbSymbolTableRecord
100
AcDbBlockTableRecord
  2
*Model_Space
340
22
  0
BLOCK_RECORD
  5
1B
330
1
100
AcDbSymbolTableRecord
100
AcDbBlockTableRecord
  2
*Paper_Space
340
1E
  0
BLOCK_RECORD
  5
23
330
1
100
AcDbSymbolTableRecord
100
AcDbBlockTableRecord
  2
*Paper_Space0
340
26
  0
ENDTAB
  0
ENDSEC
  0
SECTION
  2
BLOCKS
  0
BLOCK
  5
20
330
1F
100
AcDbEntity
  8
0
100
AcDbBlockBegin
  2
*Model_Space
 70
     0
 10
0.0
 20
0.0
 30
0.0
  3
*Model_Space
  1

  0
ENDBLK
  5
21
330
1F
100
AcDbEntity
  8
0
100
AcDbBlockEnd
  0
BLOCK
  5
1C
330
1B
100
AcDbEntity
 67
     1
  8
0
100
AcDbBlockBegin
  2
*Paper_Space
 70
     0
 10
0.0
 20
0.0
 30
0.0
  3
*Paper_Space
  1

  0
ENDBLK
  5
1D
330
1B
100
AcDbEntity
 67
     1
  8
0
100
AcDbBlockEnd
  0
BLOCK
  5
24
330
23
100
AcDbEntity
  8
0
100
AcDbBlockBegin
  2
*Paper_Space0
 70
     0
 10
0.0
 20
0.0
 30
0.0
  3
*Paper_Space0
  1

  0
ENDBLK
  5
25
330
23
100
AcDbEntity
  8
0
100
AcDbBlockEnd
  0
ENDSEC
  0
SECTION
  2
ENTITIES
  0
VIEWPORT
  5
7A
330
1B
100
AcDbEntity
 67
     1
  8
0
100
AcDbViewport
 10
594.5
 20
420.5
 30
0.0
 40
1257.962
 41
889.778
 68
     1
 69
     1
 12
594.5
 22
420.5
 13
0.0
 23
0.0
 14
10.0
 24
10.0
 15
10.0
 25
10.0
 16
0.0
 26
0.0
 36
1.0
 17
0.0
 27
0.0
 37
0.0
 42
50.0
 43
0.0
 44
0.0
 45
889.778
 50
0.0
 51
0.0
 72
   100
 90
   557152
  1

281
     0
 71
     1
 74
     0
110
0.0
120
0.0
130
0.0
111
1.0
121
0.0
131
0.0
112
0.0
122
1.0
132
0.0
 79
     0
146
0.0
  0
LINE
  5
7C
330
1B
100
AcDbEntity
 67
     1
  8
SLD-0
 62
   179
100
AcDbLine
 10
643.9647190103
 20
360.5074130149
 30
0.0
 11
625.9647190103
 21
360.5074130149
 31
0.0
  0
LINE
  5
7D
330
1B
100
AcDbEntity
 67
     1
  8
SLD-0
 62
   179
100
AcDbLine
 10
620.9647190103
 20
355.5074130149
 30
0.0
 11
620.9647190103
 21
348.6074130149
 31
0.0
  0
LINE
  5
7E
330
1B
100
AcDbEntity
 67
     1
  8
SLD-0
 62
   179
100
AcDbLine
 10
623.9647190103
 20
345.6074130149
 30
0.0
 11
645.9647190103
 21
345.6074130149
 31
0.0
  0
LINE
  5
7F
330
1B
100
AcDbEntity
 67
     1
  8
SLD-0
 62
   179
100
AcDbLine
 10
648.9647190103
 20
348.6074130149
 30
0.0
 11
648.9647190103
 21
355.5074130149
 31
0.0
  0
LINE
  5
80
330
1B
100
AcDbEntity
 67
     1
  8
SLD-0
 62
   179
100
AcDbLine
 10
631.9647190103
 20
320.5074130149
 30
0.0
 11
637.9647190103
 21
320.5074130149
 31
0.0
  0
LINE
  5
81
330
1B
100
AcDbEntity
 67
     1
  8
SLD-0
 62
   179
100
AcDbLine
 10
639.9647190103
 20
322.5074130149
 30
0.0
 11
639.9647190103
 21
323.5074130149
 31
0.0
  0
LINE
  5
82
330
1B
100
AcDbEntity
 67
     1
  8
SLD-0
 62
   179
100
AcDbLine
 10
639.9647190103
 20
323.5074130149
 30
0.0
 11
701.9647190103
 21
323.5074130149
 31
0.0
  0
LINE
  5
83
330
1B
100
AcDbEntity
 67
     1
  8
SLD-0
 62
   179
100
AcDbLine
 10
701.9647190103
 20
323.5074130149
 30
0.0
 11
701.9647190103
 21
322.5074130149
 31
0.0
  0
LINE
  5
84
330
1B
100
AcDbEntity
 67
     1
  8
SLD-0
 62
   179
100
AcDbLine
 10
703.9647190103
 20
320.5074130149
 30
0.0
 11
709.9647190103
 21
320.5074130149
 31
0.0
  0
LINE
  5
85
330
1B
100
AcDbEntity
 67
     1
  8
SLD-0
 62
   179
100
AcDbLine
 10
711.9647190103
 20
322.5074130149
 30
0.0
 11
711.9647190103
 21
323.5074130149
 31
0.0
  0
LINE
  5
86
330
1B
100
AcDbEntity
 67
     1
  8
SLD-0
 62
   179
100
AcDbLine
 10
711.9647190103
 20
323.5074130149
 30
0.0
 11
731.9647190103
 21
323.5074130149
 31
0.0
  0
LINE
  5
87
330
1B
100
AcDbEntity
 67
     1
  8
SLD-0
 62
   179
100
AcDbLine
 10
731.9647190103
 20
323.5074130149
 30
0.0
 11
731.9647190103
 21
385.5074130149
 31
0.0
  0
LINE
  5
88
330
1B
100
AcDbEntity
 67
     1
  8
SLD-0
 62
   179
100
AcDbLine
 10
731.9647190103
 20
385.5074130149
 30
0.0
 11
711.9647190103
 21
385.5074130149
 31
0.0
  0
LINE
  5
89
330
1B
100
AcDbEntity
 67
     1
  8
SLD-0
 62
   179
100
AcDbLine
 10
711.9647190103
 20
385.5074130149
 30
0.0
 11
711.9647190103
 21
386.5074130149
 31
0.0
  0
LINE
  5
8A
330
1B
100
AcDbEntity
 67
     1
  8
SLD-0
 62
   179
100
AcDbLine
 10
709.9647190103
 20
388.5074130149
 30
0.0
 11
703.9647190103
 21
388.5074130149
 31
0.0
  0
LINE
  5
8B
330
1B
100
AcDbEntity
 67
     1
  8
SLD-0
 62
   179
100
AcDbLine
 10
701.9647190103
 20
386.5074130149
 30
0.0
 11
701.9647190103
 21
385.5074130149
 31
0.0
  0
LINE
  5
8C
330
1B
100
AcDbEntity
 67
     1
  8
SLD-0
 62
   179
100
AcDbLine
 10
701.9647190103
 20
385.5074130149
 30
0.0
 11
639.9647190103
 21
385.5074130149
 31
0.0
  0
LINE
  5
8D
330
1B
100
AcDbEntity
 67
     1
  8
SLD-0
 62
   179
100
AcDbLine
 10
639.9647190103
 20
385.5074130149
 30
0.0
 11
639.9647190103
 21
386.5074130149
 31
0.0
  0
LINE
  5
8E
330
1B
100
AcDbEntity
 67
     1
  8
SLD-0
 62
   179
100
AcDbLine
 10
637.9647190103
 20
388.5074130149
 30
0.0
 11
631.9647190103
 21
388.5074130149
 31
0.0
  0
LINE
  5
8F
330
1B
100
AcDbEntity
 67
     1
  8
SLD-0
 62
   179
100
AcDbLine
 10
629.9647190103
 20
386.5074130149
 30
0.0
 11
629.9647190103
 21
385.5074130149
 31
0.0
  0
LINE
  5
90
330
1B
100
AcDbEntity
 67
     1
  8
SLD-0
 62
   179
100
AcDbLine
 10
629.9647190103
 20
385.5074130149
 30
0.0
 11
609.9647190103
 21
385.5074130149
 31
0.0
  0
LINE
  5
91
330
1B
100
AcDbEntity
 67
     1
  8
SLD-0
 62
   179
100
AcDbLine
 10
609.9647190103
 20
385.5074130149
 30
0.0
 11
609.9647190103
 21
323.5074130149
 31
0.0
  0
LINE
  5
92
330
1B
100
AcDbEntity
 67
     1
  8
SLD-0
 62
   179
100
AcDbLine
 10
609.9647190103
 20
323.5074130149
 30
0.0
 11
629.9647190103
 21
323.5074130149
 31
0.0
  0
LINE
  5
93
330
1B
100
AcDbEntity
 67
     1
  8
SLD-0
 62
   179
100
AcDbLine
 10
629.9647190103
 20
323.5074130149
 30
0.0
 11
629.9647190103
 21
322.5074130149
 31
0.0
  0
LINE
  5
94
330
1B
100
AcDbEntity
 67
     1
  8
SLD-0
 62
   179
100
AcDbLine
 10
627.1502625645
 20
286.2133730807
 30
0.0
 11
629.4501495645
 21
282.2295910807
 31
0.0
  0
LINE
  5
95
330
1B
100
AcDbEntity
 67
     1
  8
SLD-0
 62
   179
100
AcDbLine
 10
629.4501495645
 20
282.2295910807
 30
0.0
 11
627.1500365645
 21
278.2459400807
 31
0.0
  0
LINE
  5
96
330
1B
100
AcDbEntity
 67
     1
  8
SLD-0
 62
   179
100
AcDbLine
 10
627.1500365645
 20
278.2459400807
 30
0.0
 11
622.5500365645
 21
278.2460700807
 31
0.0
  0
LINE
  5
97
330
1B
100
AcDbEntity
 67
     1
  8
SLD-0
 62
   179
100
AcDbLine
 10
622.5500365645
 20
278.2460700807
 30
0.0
 11
620.2501495645
 21
282.2298520807
 31
0.0
  0
LINE
  5
98
330
1B
100
AcDbEntity
 67
     1
  8
SLD-0
 62
   179
100
AcDbLine
 10
620.2501495645
 20
282.2298520807
 30
0.0
 11
622.5502625645
 21
286.2135040807
 31
0.0
  0
LINE
  5
99
330
1B
100
AcDbEntity
 67
     1
  8
SLD-0
 62
   179
100
AcDbLine
 10
622.5502625645
 20
286.2135040807
 30
0.0
 11
627.1502625645
 21
286.2133730807
 31
0.0
  0
LINE
  5
9A
330
1B
100
AcDbEntity
 67
     1
  8
SLD-0
 62
   179
100
AcDbLine
 10
697.4965205645
 20
292.3587110807
 30
0.0
 11
699.2464335645
 21
289.3275720807
 31
0.0
  0
LINE
  5
9B
330
1B
100
AcDbEntity
 67
     1
  8
SLD-0
 62
   179
100
AcDbLine
 10
699.2464335645
 20
289.3275720807
 30
0.0
 11
697.4963465645
 21
286.2965330807
 31
0.0
  0
LINE
  5
9C
330
1B
100
AcDbEntity
 67
     1
  8
SLD-0
 62
   179
100
AcDbLine
 10
697.4963465645
 20
286.2965330807
 30
0.0
 11
693.9963465645
 21
286.2966340807
 31
0.0
  0
LINE
  5
9D
330
1B
100
AcDbEntity
 67
     1
  8
SLD-0
 62
   179
100
AcDbLine
 10
693.9963465645
 20
286.2966340807
 30
0.0
 11
692.2464335645
 21
289.3277730807
 31
0.0
  0
LINE
  5
9E
330
1B
100
AcDbEntity
 67
     1
  8
SLD-0
 62
   179
100
AcDbLine
 10
692.2464335645
 20
289.3277730807
 30
0.0
 11
693.9965205645
 21
292.3588120807
 31
0.0
  0
LINE
  5
9F
330
1B
100
AcDbEntity
 67
     1
  8
SLD-0
 62
   179
100
AcDbLine
 10
693.9965205645
 20
292.3588120807
 30
0.0
 11
697.4965205645
 21
292.3587110807
 31
0.0
  0
LINE
  5
A0
330
1B
100
AcDbEntity
 67
     1
  8
SLD-0
 62
   179
100
AcDbLine
 10
683.0625085645
 20
291.7272200807
 30
0.0
 11
683.0625085645
 21
285.7272200807
 31
0.0
  0
LINE
  5
A1
330
1B
100
AcDbEntity
 67
     1
  8
SLD-0
 62
   179
100
AcDbLine
 10
687.0625085645
 20
281.7272200807
 30
0.0
 11
707.7625085645
 21
281.7272200807
 31
0.0
  0
LINE
  5
A2
330
1B
100
AcDbEntity
 67
     1
  8
SLD-0
 62
   179
100
AcDbLine
 10
707.7625085645
 20
281.7272200807
 30
0.0
 11
707.7639185645
 21
281.7272000807
 31
0.0
  0
LINE
  5
A3
330
1B
100
AcDbEntity
 67
     1
  8
SLD-0
 62
   179
100
AcDbLine
 10
707.7639185645
 20
281.7272000807
 30
0.0
 11
707.7639185645
 21
259.7272000807
 31
0.0
  0
LINE
  5
A4
330
1B
100
AcDbEntity
 67
     1
  8
SLD-0
 62
   179
100
AcDbLine
 10
707.7639185645
 20
259.7272000807
 30
0.0
 11
637.3639185645
 21
259.7272000807
 31
0.0
  0
LINE
  5
A5
330
1B
100
AcDbEntity
 67
     1
  8
SLD-0
 62
   179
100
AcDbLine
 10
637.3639185645
 20
259.7272000807
 30
0.0
 11
637.3639185645
 21
291.7272000807
 31
0.0
  0
LINE
  5
A6
330
1B
100
AcDbEntity
 67
     1
  8
SLD-0
 62
   179
100
AcDbLine
 10
637.3639185645
 20
291.7272000807
 30
0.0
 11
683.0639185645
 21
291.7272000807
 31
0.0
  0
LINE
  5
A7
330
1B
100
AcDbEntity
 67
     1
  8
SLD-0
 62
   179
100
AcDbLine
 10
683.0639185645
 20
291.7272000807
 30
0.0
 11
683.0625085645
 21
291.7272200807
 31
0.0
  0
LINE
  5
A8
330
1B
100
AcDbEntity
 67
     1
  8
SLD-0
 62
   179
100
AcDbLine
 10
630.8639225645
 20
235.7272000807
 30
0.0
 11
624.8639185645
 21
235.7272000807
 31
0.0
  0
LINE
  5
A9
330
1B
100
AcDbEntity
 67
     1
  8
SLD-0
 62
   179
100
AcDbLine
 10
622.8639185645
 20
237.7272000807
 30
0.0
 11
622.8639185645
 21
238.7272000807
 31
0.0
  0
LINE
  5
AA
330
1B
100
AcDbEntity
 67
     1
  8
SLD-0
 62
   179
100
AcDbLine
 10
622.8639185645
 20
238.7272000807
 30
0.0
 11
611.8639185645
 21
238.7271800807
 31
0.0
  0
LINE
  5
AB
330
1B
100
AcDbEntity
 67
     1
  8
SLD-0
 62
   179
100
AcDbLine
 10
611.8639185645
 20
238.7271800807
 30
0.0
 11
611.8639185645
 21
300.7272000807
 31
0.0
  0
LINE
  5
AC
330
1B
100
AcDbEntity
 67
     1
  8
SLD-0
 62
   179
100
AcDbLine
 10
611.8639185645
 20
300.7272000807
 30
0.0
 11
631.8639185645
 21
300.7272000807
 31
0.0
  0
LINE
  5
AD
330
1B
100
AcDbEntity
 67
     1
  8
SLD-0
 62
   179
100
AcDbLine
 10
631.8639185645
 20
300.7272000807
 30
0.0
 11
631.8639185645
 21
301.7272000807
 31
0.0
  0
LINE
  5
AE
330
1B
100
AcDbEntity
 67
     1
  8
SLD-0
 62
   179
100
AcDbLine
 10
633.8639185645
 20
303.7272000807
 30
0.0
 11
639.8639185645
 21
303.7272000807
 31
0.0
  0
LINE
  5
AF
330
1B
100
AcDbEntity
 67
     1
  8
SLD-0
 62
   179
100
AcDbLine
 10
641.8639185645
 20
301.7272000807
 30
0.0
 11
641.8639185645
 21
300.7272000807
 31
0.0
  0
LINE
  5
B0
330
1B
100
AcDbEntity
 67
     1
  8
SLD-0
 62
   179
100
AcDbLine
 10
641.8639185645
 20
300.7272000807
 30
0.0
 11
703.8639185645
 21
300.7272000807
 31
0.0
  0
LINE
  5
B1
330
1B
100
AcDbEntity
 67
     1
  8
SLD-0
 62
   179
100
AcDbLine
 10
703.8639185645
 20
300.7272000807
 30
0.0
 11
703.8639185645
 21
301.7272000807
 31
0.0
  0
LINE
  5
B2
330
1B
100
AcDbEntity
 67
     1
  8
SLD-0
 62
   179
100
AcDbLine
 10
705.8639185645
 20
303.7272000807
 30
0.0
 11
711.8639185645
 21
303.7272000807
 31
0.0
  0
LINE
  5
B3
330
1B
100
AcDbEntity
 67
     1
  8
SLD-0
 62
   179
100
AcDbLine
 10
713.8639185645
 20
301.7272000807
 30
0.0
 11
713.8639185645
 21
300.7272000807
 31
0.0
  0
LINE
  5
B4
330
1B
100
AcDbEntity
 67
     1
  8
SLD-0
 62
   179
100
AcDbLine
 10
713.8639185645
 20
300.7272000807
 30
0.0
 11
733.8639185645
 21
300.7272000807
 31
0.0
  0
LINE
  5
B5
330
1B
100
AcDbEntity
 67
     1
  8
SLD-0
 62
   179
100
AcDbLine
 10
733.8639185645
 20
300.7272000807
 30
0.0
 11
733.8639185645
 21
238.7272000807
 31
0.0
  0
LINE
  5
B6
330
1B
100
AcDbEntity
 67
     1
  8
SLD-0
 62
   179
100
AcDbLine
 10
733.8639185645
 20
238.7272000807
 30
0.0
 11
722.8639185645
 21
238.7272000807
 31
0.0
  0
LINE
  5
B7
330
1B
100
AcDbEntity
 67
     1
  8
SLD-0
 62
   179
100
AcDbLine
 10
722.8639185645
 20
238.7272000807
 30
0.0
 11
722.8639185645
 21
237.7272000807
 31
0.0
  0
LINE
  5
B8
330
1B
100
AcDbEntity
 67
     1
  8
SLD-0
 62
   179
100
AcDbLine
 10
720.8639185645
 20
235.7272000807
 30
0.0
 11
714.8639185645
 21
235.7272000807
 31
0.0
  0
LINE
  5
B9
330
1B
100
AcDbEntity
 67
     1
  8
SLD-0
 62
   179
100
AcDbLine
 10
712.8639185645
 20
237.7272000807
 30
0.0
 11
712.8639185645
 21
238.7272000807
 31
0.0
  0
LINE
  5
BA
330
1B
100
AcDbEntity
 67
     1
  8
SLD-0
 62
   179
100
AcDbLine
 10
712.8639185645
 20
238.7272000807
 30
0.0
 11
711.3639185645
 21
238.7272000807
 31
0.0
  0
LINE
  5
BB
330
1B
100
AcDbEntity
 67
     1
  8
SLD-0
 62
   179
100
AcDbLine
 10
711.3639185645
 20
238.7272000807
 30
0.0
 11
711.3639185645
 21
255.7272000807
 31
0.0
  0
LINE
  5
BC
330
1B
100
AcDbEntity
 67
     1
  8
SLD-0
 62
   179
100
AcDbLine
 10
711.3639185645
 20
255.7272000807
 30
0.0
 11
642.3639185645
 21
255.7272000807
 31
0.0
  0
LINE
  5
BD
330
1B
100
AcDbEntity
 67
     1
  8
SLD-0
 62
   179
100
AcDbLine
 10
642.3639185645
 20
255.7272000807
 30
0.0
 11
642.3639185645
 21
238.7272000807
 31
0.0
  0
LINE
  5
BE
330
1B
100
AcDbEntity
 67
     1
  8
SLD-0
 62
   179
100
AcDbLine
 10
642.3639185645
 20
238.7272000807
 30
0.0
 11
632.8639295645
 21
238.7271850807
 31
0.0
  0
LINE
  5
BF
330
1B
100
AcDbEntity
 67
     1
  8
SLD-0
 62
   179
100
AcDbLine
 10
632.8639295645
 20
238.7271850807
 30
0.0
 11
632.8639225645
 21
237.7271850807
 31
0.0
  0
LINE
  5
C0
330
1B
100
AcDbEntity
 67
     1
  8
SLD-0
 62
   179
100
AcDbLine
 10
712.0397765645
 20
296.7272000807
 30
0.0
 11
726.8639185645
 21
296.7272000807
 31
0.0
  0
LINE
  5
C1
330
1B
100
AcDbEntity
 67
     1
  8
SLD-0
 62
   179
100
AcDbLine
 10
726.8639185645
 20
296.7272000807
 30
0.0
 11
726.8639185645
 21
259.7300980807
 31
0.0
  0
LINE
  5
C2
330
1B
100
AcDbEntity
 67
     1
  8
SLD-0
 62
   179
100
AcDbLine
 10
726.8639185645
 20
259.7300980807
 30
0.0
 11
712.0397765645
 21
259.7300980807
 31
0.0
  0
LINE
  5
C3
330
1B
100
AcDbEntity
 67
     1
  8
SLD-0
 62
   179
100
AcDbLine
 10
712.0397765645
 20
259.7300980807
 30
0.0
 11
712.0397765645
 21
296.7272000807
 31
0.0
  0
LINE
  5
C4
330
1B
100
AcDbEntity
 67
     1
  8
SLD-0
 62
   179
100
AcDbLine
 10
593.8660305645
 20
352.5272030807
 30
0.0
 11
596.9660305645
 21
352.5272030807
 31
0.0
  0
LINE
  5
C5
330
1B
100
AcDbEntity
 67
     1
  8
SLD-0
 62
   179
100
AcDbLine
 10
596.9660305645
 20
352.5272030807
 30
0.0
 11
596.9660305645
 21
340.9272030807
 31
0.0
  0
LINE
  5
C6
330
1B
100
AcDbEntity
 67
     1
  8
SLD-0
 62
   179
100
AcDbLine
 10
596.9660305645
 20
340.9272030807
 30
0.0
 11
593.8660305645
 21
340.9272030807
 31
0.0
  0
LINE
  5
C7
330
1B
100
AcDbEntity
 67
     1
  8
SLD-0
 62
   179
100
AcDbLine
 10
593.8660305645
 20
340.9272030807
 30
0.0
 11
593.8660305645
 21
352.5272030807
 31
0.0
  0
LINE
  5
C8
330
1B
100
AcDbEntity
 67
     1
  8
SLD-0
 62
   179
100
AcDbLine
 10
566.0660305645
 20
355.7272030807
 30
0.0
 11
577.6660305645
 21
355.7272030807
 31
0.0
  0
LINE
  5
C9
330
1B
100
AcDbEntity
 67
     1
  8
SLD-0
 62
   179
100
AcDbLine
 10
577.6660305645
 20
355.7272030807
 30
0.0
 11
577.6660305645
 21
358.8272030807
 31
0.0
  0
LINE
  5
CA
330
1B
100
AcDbEntity
 67
     1
  8
SLD-0
 62
   179
100
AcDbLine
 10
577.6660305645
 20
358.8272030807
 30
0.0
 11
566.0660305645
 21
358.8272030807
 31
0.0
  0
LINE
  5
CB
330
1B
100
AcDbEntity
 67
     1
  8
SLD-0
 62
   179
100
AcDbLine
 10
566.0660305645
 20
358.8272030807
 30
0.0
 11
566.0660305645
 21
355.7272030807
 31
0.0
  0
LINE
  5
CC
330
1B
100
AcDbEntity
 67
     1
  8
SLD-0
 62
   179
100
AcDbLine
 10
593.8660305645
 20
258.5272030807
 30
0.0
 11
596.9660305645
 21
258.5272030807
 31
0.0
  0
LINE
  5
CD
330
1B
100
AcDbEntity
 67
     1
  8
SLD-0
 62
   179
100
AcDbLine
 10
596.9660305645
 20
258.5272030807
 30
0.0
 11
596.9660305645
 21
246.9272030807
 31
0.0
  0
LINE
  5
CE
330
1B
100
AcDbEntity
 67
     1
  8
SLD-0
 62
   179
100
AcDbLine
 10
596.9660305645
 20
246.9272030807
 30
0.0
 11
593.8660305645
 21
246.9272030807
 31
0.0
  0
LINE
  5
CF
330
1B
100
AcDbEntity
 67
     1
  8
SLD-0
 62
   179
100
AcDbLine
 10
593.8660305645
 20
246.9272030807
 30
0.0
 11
593.8660305645
 21
258.5272030807
 31
0.0
  0
LINE
  5
D0
330
1B
100
AcDbEntity
 67
     1
  8
SLD-0
 62
   179
100
AcDbLine
 10
566.0660305645
 20
243.7272030807
 30
0.0
 11
577.6660305645
 21
243.7272030807
 31
0.0
  0
LINE
  5
D1
330
1B
100
AcDbEntity
 67
     1
  8
SLD-0
 62
   179
100
AcDbLine
 10
577.6660305645
 20
243.7272030807
 30
0.0
 11
577.6660305645
 21
240.6272030807
 31
0.0
  0
LINE
  5
D2
330
1B
100
AcDbEntity
 67
     1
  8
SLD-0
 62
   179
100
AcDbLine
 10
577.6660305645
 20
240.6272030807
 30
0.0
 11
566.0660305645
 21
240.6272030807
 31
0.0
  0
LINE
  5
D3
330
1B
100
AcDbEntity
 67
     1
  8
SLD-0
 62
   179
100
AcDbLine
 10
566.0660305645
 20
240.6272030807
 30
0.0
 11
566.0660305645
 21
243.7272030807
 31
0.0
  0
LINE
  5
D4
330
1B
100
AcDbEntity
 67
     1
  8
SLD-0
 62
   179
100
AcDbLine
 10
494.0660305645
 20
243.7272030807
 30
0.0
 11
505.6660305645
 21
243.7272030807
 31
0.0
  0
LINE
  5
D5
330
1B
100
AcDbEntity
 67
     1
  8
SLD-0
 62
   179
100
AcDbLine
 10
505.6660305645
 20
243.7272030807
 30
0.0
 11
505.6660305645
 21
240.6272030807
 31
0.0
  0
LINE
  5
D6
330
1B
100
AcDbEntity
 67
     1
  8
SLD-0
 62
   179
100
AcDbLine
 10
505.6660305645
 20
240.6272030807
 30
0.0
 11
494.0660305645
 21
240.6272030807
 31
0.0
  0
LINE
  5
D7
330
1B
100
AcDbEntity
 67
     1
  8
SLD-0
 62
   179
100
AcDbLine
 10
494.0660305645
 20
240.6272030807
 30
0.0
 11
494.0660305645
 21
243.7272030807
 31
0.0
  0
LINE
  5
D8
330
1B
100
AcDbEntity
 67
     1
  8
SLD-0
 62
   179
100
AcDbLine
 10
474.7660305645
 20
258.5272030807
 30
0.0
 11
477.8660305645
 21
258.5272030807
 31
0.0
  0
LINE
  5
D9
330
1B
100
AcDbEntity
 67
     1
  8
SLD-0
 62
   179
100
AcDbLine
 10
477.8660305645
 20
258.5272030807
 30
0.0
 11
477.8660305645
 21
246.9272030807
 31
0.0
  0
LINE
  5
DA
330
1B
100
AcDbEntity
 67
     1
  8
SLD-0
 62
   179
100
AcDbLine
 10
477.8660305645
 20
246.9272030807
 30
0.0
 11
474.7660305645
 21
246.9272030807
 31
0.0
  0
LINE
  5
DB
330
1B
100
AcDbEntity
 67
     1
  8
SLD-0
 62
   179
100
AcDbLine
 10
474.7660305645
 20
246.9272030807
 30
0.0
 11
474.7660305645
 21
258.5272030807
 31
0.0
  0
LINE
  5
DC
330
1B
100
AcDbEntity
 67
     1
  8
SLD-0
 62
   179
100
AcDbLine
 10
474.7660305645
 20
352.5272030807
 30
0.0
 11
477.8660305645
 21
352.5272030807
 31
0.0
  0
LINE
  5
DD
330
1B
100
AcDbEntity
 67
     1
  8
SLD-0
 62
   179
100
AcDbLine
 10
477.8660305645
 20
352.5272030807
 30
0.0
 11
477.8660305645
 21
340.9272030807
 31
0.0
  0
LINE
  5
DE
330
1B
100
AcDbEntity
 67
     1
  8
SLD-0
 62
   179
100
AcDbLine
 10
477.8660305645
 20
340.9272030807
 30
0.0
 11
474.7660305645
 21
340.9272030807
 31
0.0
  0
LINE
  5
DF
330
1B
100
AcDbEntity
 67
     1
  8
SLD-0
 62
   179
100
AcDbLine
 10
474.7660305645
 20
340.9272030807
 30
0.0
 11
474.7660305645
 21
352.5272030807
 31
0.0
  0
LINE
  5
E0
330
1B
100
AcDbEntity
 67
     1
  8
SLD-0
 62
   179
100
AcDbLine
 10
494.0660305645
 20
358.8272030807
 30
0.0
 11
505.6660305645
 21
358.8272030807
 31
0.0
  0
LINE
  5
E1
330
1B
100
AcDbEntity
 67
     1
  8
SLD-0
 62
   179
100
AcDbLine
 10
505.6660305645
 20
358.8272030807
 30
0.0
 11
505.6660305645
 21
355.7272030807
 31
0.0
  0
LINE
  5
E2
330
1B
100
AcDbEntity
 67
     1
  8
SLD-0
 62
   179
100
AcDbLine
 10
505.6660305645
 20
355.7272030807
 30
0.0
 11
494.0660305645
 21
355.7272030807
 31
0.0
  0
LINE
  5
E3
330
1B
100
AcDbEntity
 67
     1
  8
SLD-0
 62
   179
100
AcDbLine
 10
494.0660305645
 20
355.7272030807
 30
0.0
 11
494.0660305645
 21
358.8272030807
 31
0.0
  0
LINE
  5
E4
330
1B
100
AcDbEntity
 67
     1
  8
SLD-0
 62
   179
100
AcDbLine
 10
530.8659725645
 20
235.7280810807
 30
0.0
 11
474.8659865645
 21
235.7280810807
 31
0.0
  0
LINE
  5
E5
330
1B
100
AcDbEntity
 67
     1
  8
SLD-0
 62
   179
100
AcDbLine
 10
469.8659865645
 20
240.7280380807
 30
0.0
 11
469.8649565645
 21
358.7280380807
 31
0.0
  0
LINE
  5
E6
330
1B
100
AcDbEntity
 67
     1
  8
SLD-0
 62
   179
100
AcDbLine
 10
474.8649925645
 20
363.7280810807
 30
0.0
 11
596.8649925645
 21
363.7272030807
 31
0.0
  0
LINE
  5
E7
330
1B
100
AcDbEntity
 67
     1
  8
SLD-0
 62
   179
100
AcDbLine
 10
601.8649565645
 20
358.7272460807
 30
0.0
 11
601.8659865645
 21
240.7272460807
 31
0.0
  0
LINE
  5
E8
330
1B
100
AcDbEntity
 67
     1
  8
SLD-0
 62
   179
100
AcDbLine
 10
596.8659505645
 20
235.7272030809
 30
0.0
 11
540.8660305645
 21
235.7276060809
 31
0.0
  0
LINE
  5
E9
330
1B
100
AcDbEntity
 67
     1
  8
SLD-0
 62
   179
100
AcDbLine
 10
530.8660305645
 20
235.7276780807
 30
0.0
 11
530.8659725645
 21
235.7280810807
 31
0.0
  0
LINE
  5
EA
330
1B
100
AcDbEntity
 67
     1
  8
SLD-0
 62
   179
100
AcDbLine
 10
530.8659725645
 20
378.7280810807
 30
0.0
 11
474.8659865645
 21
378.7280810807
 31
0.0
  0
LINE
  5
EB
330
1B
100
AcDbEntity
 67
     1
  8
SLD-0
 62
   179
100
AcDbLine
 10
469.8659865645
 20
383.7280380807
 30
0.0
 11
469.8649565645
 21
501.7280380807
 31
0.0
  0
LINE
  5
EC
330
1B
100
AcDbEntity
 67
     1
  8
SLD-0
 62
   179
100
AcDbLine
 10
474.8649925645
 20
506.7280810807
 30
0.0
 11
596.8649925645
 21
506.7272030807
 31
0.0
  0
LINE
  5
ED
330
1B
100
AcDbEntity
 67
     1
  8
SLD-0
 62
   179
100
AcDbLine
 10
601.8649565645
 20
501.7272460807
 30
0.0
 11
601.8659865645
 21
383.7272460807
 31
0.0
  0
LINE
  5
EE
330
1B
100
AcDbEntity
 67
     1
  8
SLD-0
 62
   179
100
AcDbLine
 10
596.8659505645
 20
378.7272030809
 30
0.0
 11
540.8660305645
 21
378.7276060809
 31
0.0
  0
LINE
  5
EF
330
1B
100
AcDbEntity
 67
     1
  8
SLD-0
 62
   179
100
AcDbLine
 10
530.8660305645
 20
378.7276780807
 30
0.0
 11
530.8659725645
 21
378.7280810807
 31
0.0
  0
LINE
  5
F0
330
1B
100
AcDbEntity
 67
     1
  8
SLD-0
 62
   179
100
AcDbLine
 10
485.0660805645
 20
386.7272030807
 30
0.0
 11
496.6660805645
 21
386.7272030807
 31
0.0
  0
LINE
  5
F1
330
1B
100
AcDbEntity
 67
     1
  8
SLD-0
 62
   179
100
AcDbLine
 10
496.6660805645
 20
386.7272030807
 30
0.0
 11
496.6660805645
 21
383.6272030807
 31
0.0
  0
LINE
  5
F2
330
1B
100
AcDbEntity
 67
     1
  8
SLD-0
 62
   179
100
AcDbLine
 10
496.6660805645
 20
383.6272030807
 30
0.0
 11
485.0660805645
 21
383.6272030807
 31
0.0
  0
LINE
  5
F3
330
1B
100
AcDbEntity
 67
     1
  8
SLD-0
 62
   179
100
AcDbLine
 10
485.0660805645
 20
383.6272030807
 30
0.0
 11
485.0660805645
 21
386.7272030807
 31
0.0
  0
LINE
  5
F4
330
1B
100
AcDbEntity
 67
     1
  8
SLD-0
 62
   179
100
AcDbLine
 10
575.0660805645
 20
386.7272030807
 30
0.0
 11
586.6660805645
 21
386.7272030807
 31
0.0
  0
LINE
  5
F5
330
1B
100
AcDbEntity
 67
     1
  8
SLD-0
 62
   179
100
AcDbLine
 10
586.6660805645
 20
386.7272030807
 30
0.0
 11
586.6660805645
 21
383.6272030807
 31
0.0
  0
LINE
  5
F6
330
1B
100
AcDbEntity
 67
     1
  8
SLD-0
 62
   179
100
AcDbLine
 10
586.6660805645
 20
383.6272030807
 30
0.0
 11
575.0660805645
 21
383.6272030807
 31
0.0
  0
LINE
  5
F7
330
1B
100
AcDbEntity
 67
     1
  8
SLD-0
 62
   179
100
AcDbLine
 10
575.0660805645
 20
383.6272030807
 30
0.0
 11
575.0660805645
 21
386.7272030807
 31
0.0
  0
LINE
  5
F8
330
1B
100
AcDbEntity
 67
     1
  8
SLD-0
 62
   179
100
AcDbLine
 10
593.8660805645
 20
495.0526570807
 30
0.0
 11
596.9660805645
 21
495.0526570807
 31
0.0
  0
LINE
  5
F9
330
1B
100
AcDbEntity
 67
     1
  8
SLD-0
 62
   179
100
AcDbLine
 10
596.9660805645
 20
495.0526570807
 30
0.0
 11
596.9660805645
 21
484.4017480807
 31
0.0
  0
LINE
  5
FA
330
1B
100
AcDbEntity
 67
     1
  8
SLD-0
 62
   179
100
AcDbLine
 10
596.9660805645
 20
484.4017480807
 30
0.0
 11
593.8660805645
 21
484.4017480807
 31
0.0
  0
LINE
  5
FB
330
1B
100
AcDbEntity
 67
     1
  8
SLD-0
 62
   179
100
AcDbLine
 10
593.8660805645
 20
484.4017480807
 30
0.0
 11
593.8660805645
 21
495.0526570807
 31
0.0
  0
LINE
  5
FC
330
1B
100
AcDbEntity
 67
     1
  8
SLD-0
 62
   179
100
AcDbLine
 10
566.0660805645
 20
498.7272030807
 30
0.0
 11
577.6660805645
 21
498.7272030807
 31
0.0
  0
LINE
  5
FD
330
1B
100
AcDbEntity
 67
     1
  8
SLD-0
 62
   179
100
AcDbLine
 10
577.6660805645
 20
498.7272030807
 30
0.0
 11
577.6660805645
 21
501.8272030807
 31
0.0
  0
LINE
  5
FE
330
1B
100
AcDbEntity
 67
     1
  8
SLD-0
 62
   179
100
AcDbLine
 10
577.6660805645
 20
501.8272030807
 30
0.0
 11
566.0660805645
 21
501.8272030807
 31
0.0
  0
LINE
  5
FF
330
1B
100
AcDbEntity
 67
     1
  8
SLD-0
 62
   179
100
AcDbLine
 10
566.0660805645
 20
501.8272030807
 30
0.0
 11
566.0660805645
 21
498.7272030807
 31
0.0
  0
LINE
  5
100
330
1B
100
AcDbEntity
 67
     1
  8
SLD-0
 62
   179
100
AcDbLine
 10
593.8660805645
 20
401.5272030807
 30
0.0
 11
596.9660805645
 21
401.5272030807
 31
0.0
  0
LINE
  5
101
330
1B
100
AcDbEntity
 67
     1
  8
SLD-0
 62
   179
100
AcDbLine
 10
596.9660805645
 20
401.5272030807
 30
0.0
 11
596.9660805645
 21
389.9272030807
 31
0.0
  0
LINE
  5
102
330
1B
100
AcDbEntity
 67
     1
  8
SLD-0
 62
   179
100
AcDbLine
 10
596.9660805645
 20
389.9272030807
 30
0.0
 11
593.8660805645
 21
389.9272030807
 31
0.0
  0
LINE
  5
103
330
1B
100
AcDbEntity
 67
     1
  8
SLD-0
 62
   179
100
AcDbLine
 10
593.8660805645
 20
389.9272030807
 30
0.0
 11
593.8660805645
 21
401.5272030807
 31
0.0
  0
LINE
  5
104
330
1B
100
AcDbEntity
 67
     1
  8
SLD-0
 62
   179
100
AcDbLine
 10
474.7660805645
 20
401.5272030807
 30
0.0
 11
477.8660805645
 21
401.5272030807
 31
0.0
  0
LINE
  5
105
330
1B
100
AcDbEntity
 67
     1
  8
SLD-0
 62
   179
100
AcDbLine
 10
477.8660805645
 20
401.5272030807
 30
0.0
 11
477.8660805645
 21
389.9272030807
 31
0.0
  0
LINE
  5
106
330
1B
100
AcDbEntity
 67
     1
  8
SLD-0
 62
   179
100
AcDbLine
 10
477.8660805645
 20
389.9272030807
 30
0.0
 11
474.7660805645
 21
389.9272030807
 31
0.0
  0
LINE
  5
107
330
1B
100
AcDbEntity
 67
     1
  8
SLD-0
 62
   179
100
AcDbLine
 10
474.7660805645
 20
389.9272030807
 30
0.0
 11
474.7660805645
 21
401.5272030807
 31
0.0
  0
LINE
  5
108
330
1B
100
AcDbEntity
 67
     1
  8
SLD-0
 62
   179
100
AcDbLine
 10
474.7660805645
 20
495.5272030807
 30
0.0
 11
477.8660805645
 21
495.5272030807
 31
0.0
  0
LINE
  5
109
330
1B
100
AcDbEntity
 67
     1
  8
SLD-0
 62
   179
100
AcDbLine
 10
477.8660805645
 20
495.5272030807
 30
0.0
 11
477.8660805645
 21
483.9272030807
 31
0.0
  0
LINE
  5
10A
330
1B
100
AcDbEntity
 67
     1
  8
SLD-0
 62
   179
100
AcDbLine
 10
477.8660805645
 20
483.9272030807
 30
0.0
 11
474.7660805645
 21
483.9272030807
 31
0.0
  0
LINE
  5
10B
330
1B
100
AcDbEntity
 67
     1
  8
SLD-0
 62
   179
100
AcDbLine
 10
474.7660805645
 20
483.9272030807
 30
0.0
 11
474.7660805645
 21
495.5272030807
 31
0.0
  0
LINE
  5
10C
330
1B
100
AcDbEntity
 67
     1
  8
SLD-0
 62
   179
100
AcDbLine
 10
494.0660805645
 20
501.8272030807
 30
0.0
 11
505.6660805645
 21
501.8272030807
 31
0.0
  0
LINE
  5
10D
330
1B
100
AcDbEntity
 67
     1
  8
SLD-0
 62
   179
100
AcDbLine
 10
505.6660805645
 20
501.8272030807
 30
0.0
 11
505.6660805645
 21
498.7272030807
 31
0.0
  0
LINE
  5
10E
330
1B
100
AcDbEntity
 67
     1
  8
SLD-0
 62
   179
100
AcDbLine
 10
505.6660805645
 20
498.7272030807
 30
0.0
 11
494.0660805645
 21
498.7272030807
 31
0.0
  0
LINE
  5
10F
330
1B
100
AcDbEntity
 67
     1
  8
SLD-0
 62
   179
100
AcDbLine
 10
494.0660805645
 20
498.7272030807
 30
0.0
 11
494.0660805645
 21
501.8272030807
 31
0.0
  0
LINE
  5
110
330
1B
100
AcDbEntity
 67
     1
  8
SLD-0
 62
   179
100
AcDbLine
 10
624.1358650122
 20
403.0899267332
 30
0.0
 11
624.1358650122
 21
402.0899267332
 31
0.0
  0
LINE
  5
111
330
1B
100
AcDbEntity
 67
     1
  8
SLD-0
 62
   179
100
AcDbLine
 10
626.1358650122
 20
400.0899267332
 30
0.0
 11
632.1358650122
 21
400.0899267332
 31
0.0
  0
LINE
  5
112
330
1B
100
AcDbEntity
 67
     1
  8
SLD-0
 62
   179
100
AcDbLine
 10
634.1358650122
 20
402.0899267332
 30
0.0
 11
634.1358650122
 21
403.0937727332
 31
0.0
  0
LINE
  5
113
330
1B
100
AcDbEntity
 67
     1
  8
SLD-0
 62
   179
100
AcDbLine
 10
634.1358650122
 20
403.0937727332
 30
0.0
 11
639.1312150122
 21
403.0936597332
 31
0.0
  0
LINE
  5
114
330
1B
100
AcDbEntity
 67
     1
  8
SLD-0
 62
   179
100
AcDbLine
 10
639.1312150122
 20
403.0936597332
 30
0.0
 11
639.1313320122
 21
408.0900437332
 31
0.0
  0
LINE
  5
115
330
1B
100
AcDbEntity
 67
     1
  8
SLD-0
 62
   179
100
AcDbLine
 10
644.1313320122
 20
413.0899267332
 30
0.0
 11
694.1358650122
 21
413.0899267332
 31
0.0
  0
LINE
  5
116
330
1B
100
AcDbEntity
 67
     1
  8
SLD-0
 62
   179
100
AcDbLine
 10
699.1358650122
 20
408.0899267332
 30
0.0
 11
699.1358650122
 21
403.0899267332
 31
0.0
  0
LINE
  5
117
330
1B
100
AcDbEntity
 67
     1
  8
SLD-0
 62
   179
100
AcDbLine
 10
699.1358650122
 20
403.0899267332
 30
0.0
 11
718.1358650122
 21
403.0899267332
 31
0.0
  0
LINE
  5
118
330
1B
100
AcDbEntity
 67
     1
  8
SLD-0
 62
   179
100
AcDbLine
 10
718.1358650122
 20
403.0899267332
 30
0.0
 11
718.1358650122
 21
402.0899267332
 31
0.0
  0
LINE
  5
119
330
1B
100
AcDbEntity
 67
     1
  8
SLD-0
 62
   179
100
AcDbLine
 10
720.1358650122
 20
400.0899267332
 30
0.0
 11
726.1358650122
 21
400.0899267332
 31
0.0
  0
LINE
  5
11A
330
1B
100
AcDbEntity
 67
     1
  8
SLD-0
 62
   179
100
AcDbLine
 10
728.1358650122
 20
402.0899267332
 30
0.0
 11
728.1358650122
 21
403.0899267332
 31
0.0
  0
LINE
  5
11B
330
1B
100
AcDbEntity
 67
     1
  8
SLD-0
 62
   179
100
AcDbLine
 10
728.1358650122
 20
403.0899267332
 30
0.0
 11
732.1312150122
 21
403.0899267332
 31
0.0
  0
LINE
  5
11C
330
1B
100
AcDbEntity
 67
     1
  8
SLD-0
 62
   179
100
AcDbLine
 10
732.1312150122
 20
403.0899267332
 30
0.0
 11
732.1312150122
 21
465.0981997332
 31
0.0
  0
LINE
  5
11D
330
1B
100
AcDbEntity
 67
     1
  8
SLD-0
 62
   179
100
AcDbLine
 10
732.1312150122
 20
465.0981997332
 30
0.0
 11
728.1358650122
 21
465.0981997332
 31
0.0
  0
LINE
  5
11E
330
1B
100
AcDbEntity
 67
     1
  8
SLD-0
 62
   179
100
AcDbLine
 10
728.1358650122
 20
465.0981997332
 30
0.0
 11
728.1358650122
 21
466.0981997332
 31
0.0
  0
LINE
  5
11F
330
1B
100
AcDbEntity
 67
     1
  8
SLD-0
 62
   179
100
AcDbLine
 10
726.1358650122
 20
468.0981997332
 30
0.0
 11
720.1358650122
 21
468.0981997332
 31
0.0
  0
LINE
  5
120
330
1B
100
AcDbEntity
 67
     1
  8
SLD-0
 62
   179
100
AcDbLine
 10
718.1358650122
 20
466.0981997332
 30
0.0
 11
718.1358650122
 21
465.0981997332
 31
0.0
  0
LINE
  5
121
330
1B
100
AcDbEntity
 67
     1
  8
SLD-0
 62
   179
100
AcDbLine
 10
718.1358650122
 20
465.0981997332
 30
0.0
 11
634.1358650122
 21
465.0981997332
 31
0.0
  0
LINE
  5
122
330
1B
100
AcDbEntity
 67
     1
  8
SLD-0
 62
   179
100
AcDbLine
 10
634.1358650122
 20
465.0981997332
 30
0.0
 11
634.1358650122
 21
466.0981997332
 31
0.0
  0
LINE
  5
123
330
1B
100
AcDbEntity
 67
     1
  8
SLD-0
 62
   179
100
AcDbLine
 10
632.1358650122
 20
468.0981997332
 30
0.0
 11
626.1358650122
 21
468.0981997332
 31
0.0
  0
LINE
  5
124
330
1B
100
AcDbEntity
 67
     1
  8
SLD-0
 62
   179
100
AcDbLine
 10
624.1358650122
 20
466.0981997332
 30
0.0
 11
624.1358650122
 21
465.0943537332
 31
0.0
  0
LINE
  5
125
330
1B
100
AcDbEntity
 67
     1
  8
SLD-0
 62
   179
100
AcDbLine
 10
624.1358650122
 20
465.0943537332
 30
0.0
 11
620.1312150122
 21
465.0940637332
 31
0.0
  0
LINE
  5
126
330
1B
100
AcDbEntity
 67
     1
  8
SLD-0
 62
   179
100
AcDbLine
 10
620.1312150122
 20
465.0940637332
 30
0.0
 11
620.1312150122
 21
403.0940637332
 31
0.0
  0
LINE
  5
127
330
1B
100
AcDbEntity
 67
     1
  8
SLD-0
 62
   179
100
AcDbLine
 10
620.1312150122
 20
403.0940637332
 30
0.0
 11
624.1312150122
 21
403.0937727332
 31
0.0
  0
LINE
  5
128
330
1B
100
AcDbEntity
 67
     1
  8
SLD-0
 62
   179
100
AcDbLine
 10
624.1312150122
 20
403.0937727332
 30
0.0
 11
624.1358650122
 21
403.0899267332
 31
0.0
  0
LINE
  5
129
330
1B
100
AcDbEntity
 67
     1
  8
SLD-0
 62
   179
100
AcDbLine
 10
624.1358650122
 20
491.0937727332
 30
0.0
 11
620.1405150122
 21
491.0940627332
 31
0.0
  0
LINE
  5
12A
330
1B
100
AcDbEntity
 67
     1
  8
SLD-0
 62
   179
100
AcDbLine
 10
620.1405150122
 20
491.0940627332
 30
0.0
 11
620.1358650122
 21
553.0940637332
 31
0.0
  0
LINE
  5
12B
330
1B
100
AcDbEntity
 67
     1
  8
SLD-0
 62
   179
100
AcDbLine
 10
620.1358650122
 20
553.0940637332
 30
0.0
 11
624.1405150122
 21
553.0943537332
 31
0.0
  0
LINE
  5
12C
330
1B
100
AcDbEntity
 67
     1
  8
SLD-0
 62
   179
100
AcDbLine
 10
624.1405150122
 20
553.0943537332
 30
0.0
 11
624.1405150122
 21
554.0981997332
 31
0.0
  0
LINE
  5
12D
330
1B
100
AcDbEntity
 67
     1
  8
SLD-0
 62
   179
100
AcDbLine
 10
626.1405150122
 20
556.0981997332
 30
0.0
 11
632.1405150122
 21
556.0981997332
 31
0.0
  0
LINE
  5
12E
330
1B
100
AcDbEntity
 67
     1
  8
SLD-0
 62
   179
100
AcDbLine
 10
634.1405150122
 20
554.0981997332
 30
0.0
 11
634.1405150122
 21
553.0943537332
 31
0.0
  0
LINE
  5
12F
330
1B
100
AcDbEntity
 67
     1
  8
SLD-0
 62
   179
100
AcDbLine
 10
634.1405150122
 20
553.0943537332
 30
0.0
 11
639.1358650122
 21
553.0944667332
 31
0.0
  0
LINE
  5
130
330
1B
100
AcDbEntity
 67
     1
  8
SLD-0
 62
   179
100
AcDbLine
 10
639.1358650122
 20
553.0944667332
 30
0.0
 11
639.1359820122
 21
548.0980827332
 31
0.0
  0
LINE
  5
131
330
1B
100
AcDbEntity
 67
     1
  8
SLD-0
 62
   179
100
AcDbLine
 10
644.1359820122
 20
543.0981997332
 30
0.0
 11
694.1405150122
 21
543.0981997332
 31
0.0
  0
LINE
  5
132
330
1B
100
AcDbEntity
 67
     1
  8
SLD-0
 62
   179
100
AcDbLine
 10
699.1405150122
 20
548.0981997332
 30
0.0
 11
699.1405150122
 21
553.0981997332
 31
0.0
  0
LINE
  5
133
330
1B
100
AcDbEntity
 67
     1
  8
SLD-0
 62
   179
100
AcDbLine
 10
699.1405150122
 20
553.0981997332
 30
0.0
 11
718.1405150122
 21
553.0981997332
 31
0.0
  0
LINE
  5
134
330
1B
100
AcDbEntity
 67
     1
  8
SLD-0
 62
   179
100
AcDbLine
 10
718.1405150122
 20
553.0981997332
 30
0.0
 11
718.1405150122
 21
554.0981997332
 31
0.0
  0
LINE
  5
135
330
1B
100
AcDbEntity
 67
     1
  8
SLD-0
 62
   179
100
AcDbLine
 10
720.1405150122
 20
556.0981997332
 30
0.0
 11
726.1405150122
 21
556.0981997332
 31
0.0
  0
LINE
  5
136
330
1B
100
AcDbEntity
 67
     1
  8
SLD-0
 62
   179
100
AcDbLine
 10
728.1405150122
 20
554.0981997332
 30
0.0
 11
728.1405150122
 21
553.0981997332
 31
0.0
  0
LINE
  5
137
330
1B
100
AcDbEntity
 67
     1
  8
SLD-0
 62
   179
100
AcDbLine
 10
728.1405150122
 20
553.0981997332
 30
0.0
 11
732.1358650122
 21
553.0981997332
 31
0.0
  0
LINE
  5
138
330
1B
100
AcDbEntity
 67
     1
  8
SLD-0
 62
   179
100
AcDbLine
 10
732.1358650122
 20
553.0981997332
 30
0.0
 11
732.1405150122
 21
491.0899267332
 31
0.0
  0
LINE
  5
139
330
1B
100
AcDbEntity
 67
     1
  8
SLD-0
 62
   179
100
AcDbLine
 10
732.1405150122
 20
491.0899267332
 30
0.0
 11
728.1405150122
 21
491.0899267332
 31
0.0
  0
LINE
  5
13A
330
1B
100
AcDbEntity
 67
     1
  8
SLD-0
 62
   179
100
AcDbLine
 10
728.1405150122
 20
491.0899267332
 30
0.0
 11
728.1405150122
 21
490.0899267332
 31
0.0
  0
LINE
  5
13B
330
1B
100
AcDbEntity
 67
     1
  8
SLD-0
 62
   179
100
AcDbLine
 10
726.1405150122
 20
488.0899267332
 30
0.0
 11
720.1405150122
 21
488.0899267332
 31
0.0
  0
LINE
  5
13C
330
1B
100
AcDbEntity
 67
     1
  8
SLD-0
 62
   179
100
AcDbLine
 10
718.1405150122
 20
490.0899267332
 30
0.0
 11
718.1405150122
 21
491.0899267332
 31
0.0
  0
LINE
  5
13D
330
1B
100
AcDbEntity
 67
     1
  8
SLD-0
 62
   179
100
AcDbLine
 10
718.1405150122
 20
491.0899267332
 30
0.0
 11
634.1405150122
 21
491.0899267332
 31
0.0
  0
LINE
  5
13E
330
1B
100
AcDbEntity
 67
     1
  8
SLD-0
 62
   179
100
AcDbLine
 10
634.1405150122
 20
491.0899267332
 30
0.0
 11
634.1405150122
 21
490.0899267332
 31
0.0
  0
LINE
  5
13F
330
1B
100
AcDbEntity
 67
     1
  8
SLD-0
 62
   179
100
AcDbLine
 10
632.1405150122
 20
488.0899267332
 30
0.0
 11
626.1405150122
 21
488.0899267332
 31
0.0
  0
LINE
  5
140
330
1B
100
AcDbEntity
 67
     1
  8
SLD-0
 62
   179
100
AcDbLine
 10
624.1405150122
 20
490.0899267332
 30
0.0
 11
624.1405150122
 21
491.0899267332
 31
0.0
  0
LINE
  5
141
330
1B
100
AcDbEntity
 67
     1
  8
SLD-0
 62
   179
100
AcDbLine
 10
624.1405150122
 20
491.0899267332
 30
0.0
 11
624.1358650122
 21
491.0937727332
 31
0.0
  0
ARC
  5
142
330
1B
100
AcDbEntity
 67
     1
  8
SLD-0
 62
   179
100
AcDbCircle
 10
643.9647227457
 20
355.5074167503
 30
0.0
 40
4.999996264601381
100
AcDbArc
 50
359.9999571954
 51
90.0000428046
  0
ARC
  5
143
330
1B
100
AcDbEntity
 67
     1
  8
SLD-0
 62
   179
100
AcDbCircle
 10
625.9647152749
 20
355.5074167503
 30
0.0
 40
4.999996264601381
100
AcDbArc
 50
89.9999571954
 51
180.0000428046
  0
ARC
  5
144
330
1B
100
AcDbEntity
 67
     1
  8
SLD-0
 62
   179
100
AcDbCircle
 10
623.9647167691
 20
348.6074107737
 30
0.0
 40
2.99999775880046
100
AcDbArc
 50
179.9999571962
 51
270.0000428038
  0
ARC
  5
145
330
1B
100
AcDbEntity
 67
     1
  8
SLD-0
 62
   179
100
AcDbCircle
 10
645.9647212515
 20
348.6074107737
 30
0.0
 40
2.999997758801029
100
AcDbArc
 50
269.9999571962
 51
0.0000428038
  0
ARC
  5
146
330
1B
100
AcDbEntity
 67
     1
  8
SLD-0
 62
   179
100
AcDbCircle
 10
631.9647175162
 20
322.5074115207
 30
0.0
 40
1.999998505850489
100
AcDbArc
 50
179.9999571957
 51
270.0000428043
  0
ARC
  5
147
330
1B
100
AcDbEntity
 67
     1
  8
SLD-0
 62
   179
100
AcDbCircle
 10
637.9647205044
 20
322.5074115208
 30
0.0
 40
1.999998505900511
100
AcDbArc
 50
269.9999571972
 51
0.0000428028
  0
ARC
  5
148
330
1B
100
AcDbEntity
 67
     1
  8
SLD-0
 62
   179
100
AcDbCircle
 10
703.9647175162
 20
322.5074115207
 30
0.0
 40
1.999998505850602
100
AcDbArc
 50
179.9999571957
 51
270.0000428043
  0
ARC
  5
149
330
1B
100
AcDbEntity
 67
     1
  8
SLD-0
 62
   179
100
AcDbCircle
 10
709.9647205044
 20
322.5074115208
 30
0.0
 40
1.999998505900511
100
AcDbArc
 50
269.9999571972
 51
0.0000428028
  0
ARC
  5
14A
330
1B
100
AcDbEntity
 67
     1
  8
SLD-0
 62
   179
100
AcDbCircle
 10
709.9647205045
 20
386.507414509
 30
0.0
 40
1.999998505850432
100
AcDbArc
 50
359.9999571957
 51
90.0000428043
  0
ARC
  5
14B
330
1B
100
AcDbEntity
 67
     1
  8
SLD-0
 62
   179
100
AcDbCircle
 10
703.9647175161
 20
386.5074145091
 30
0.0
 40
1.999998505800466
100
AcDbArc
 50
89.9999571943
 51
180.0000428057
  0
ARC
  5
14C
330
1B
100
AcDbEntity
 67
     1
  8
SLD-0
 62
   179
100
AcDbCircle
 10
637.9647205045
 20
386.507414509
 30
0.0
 40
1.999998505850602
100
AcDbArc
 50
359.9999571957
 51
90.0000428043
  0
ARC
  5
14D
330
1B
100
AcDbEntity
 67
     1
  8
SLD-0
 62
   179
100
AcDbCircle
 10
631.9647175161
 20
386.5074145091
 30
0.0
 40
1.999998505800466
100
AcDbArc
 50
89.9999571943
 51
180.0000428057
  0
ARC
  5
14E
330
1B
100
AcDbEntity
 67
     1
  8
SLD-0
 62
   179
100
AcDbCircle
 10
687.0625055762
 20
285.7272170924
 30
0.0
 40
3.999997011701091
100
AcDbArc
 50
179.9999571957
 51
270.0000428043
  0
ARC
  5
14F
330
1B
100
AcDbEntity
 67
     1
  8
SLD-0
 62
   179
100
AcDbCircle
 10
624.8639170704
 20
237.7271985866
 30
0.0
 40
1.999998505900511
100
AcDbArc
 50
179.9999571972
 51
270.0000428028
  0
ARC
  5
150
330
1B
100
AcDbEntity
 67
     1
  8
SLD-0
 62
   179
100
AcDbCircle
 10
633.8639170704
 20
301.7272015748
 30
0.0
 40
1.999998505850602
100
AcDbArc
 50
89.9999571957
 51
180.0000428043
  0
ARC
  5
151
330
1B
100
AcDbEntity
 67
     1
  8
SLD-0
 62
   179
100
AcDbCircle
 10
639.8639200587
 20
301.7272015749
 30
0.0
 40
1.99999850580058
100
AcDbArc
 50
359.9999571943
 51
90.0000428057
  0
ARC
  5
152
330
1B
100
AcDbEntity
 67
     1
  8
SLD-0
 62
   179
100
AcDbCircle
 10
705.8639170704
 20
301.7272015748
 30
0.0
 40
1.999998505850602
100
AcDbArc
 50
89.9999571957
 51
180.0000428043
  0
ARC
  5
153
330
1B
100
AcDbEntity
 67
     1
  8
SLD-0
 62
   179
100
AcDbCircle
 10
711.8639200587
 20
301.7272015749
 30
0.0
 40
1.999998505800466
100
AcDbArc
 50
359.9999571943
 51
90.0000428057
  0
ARC
  5
154
330
1B
100
AcDbEntity
 67
     1
  8
SLD-0
 62
   179
100
AcDbCircle
 10
720.8639200587
 20
237.7271985865
 30
0.0
 40
1.999998505850602
100
AcDbArc
 50
269.9999571957
 51
0.0000428043
  0
ARC
  5
155
330
1B
100
AcDbEntity
 67
     1
  8
SLD-0
 62
   179
100
AcDbCircle
 10
714.8639170704
 20
237.7271985866
 30
0.0
 40
1.999998505900625
100
AcDbArc
 50
179.9999571972
 51
270.0000428028
  0
ARC
  5
156
330
1B
100
AcDbEntity
 67
     1
  8
SLD-0
 62
   179
100
AcDbCircle
 10
630.8639240587
 20
237.7271985865
 30
0.0
 40
1.999998505876136
100
AcDbArc
 50
269.9995274783
 51
359.9996130879
  0
ARC
  5
157
330
1B
100
AcDbEntity
 67
     1
  8
SLD-0
 62
   179
100
AcDbCircle
 10
709.9647249869
 20
367.2074070383
 30
0.0
 40
7.999994023400817
100
AcDbArc
 50
269.9999571957
 51
0.0000428043
  0
ARC
  5
158
330
1B
100
AcDbEntity
 67
     1
  8
SLD-0
 62
   179
100
AcDbCircle
 10
709.9647130337
 20
367.2074070383
 30
0.0
 40
7.999994023400363
100
AcDbArc
 50
179.9999571957
 51
270.0000428043
  0
ARC
  5
159
330
1B
100
AcDbEntity
 67
     1
  8
SLD-0
 62
   179
100
AcDbCircle
 10
709.9647130337
 20
367.2074189915
 30
0.0
 40
7.999994023400817
100
AcDbArc
 50
89.9999571957
 51
180.0000428043
  0
ARC
  5
15A
330
1B
100
AcDbEntity
 67
     1
  8
SLD-0
 62
   179
100
AcDbCircle
 10
709.9647249869
 20
367.2074189915
 30
0.0
 40
7.999994023400704
100
AcDbArc
 50
359.9999571957
 51
90.0000428043
  0
ARC
  5
15B
330
1B
100
AcDbEntity
 67
     1
  8
SLD-0
 62
   179
100
AcDbCircle
 10
624.8497095645
 20
265.7297220807
 30
0.0
 40
7.015114999990838
100
AcDbArc
 50
269.9999999999
 51
0.0000387207
  0
ARC
  5
15C
330
1B
100
AcDbEntity
 67
     1
  8
SLD-0
 62
   179
100
AcDbCircle
 10
624.8497095645
 20
265.7297220807
 30
0.0
 40
7.015114999990828
100
AcDbArc
 50
179.9999999998
 51
269.9999999999
  0
ARC
  5
15D
330
1B
100
AcDbEntity
 67
     1
  8
SLD-0
 62
   179
100
AcDbCircle
 10
624.8497095645
 20
265.7297220807
 30
0.0
 40
7.015114999990772
100
AcDbArc
 50
89.9999999999
 51
179.9999999998
  0
ARC
  5
15E
330
1B
100
AcDbEntity
 67
     1
  8
SLD-0
 62
   179
100
AcDbCircle
 10
624.8497095645
 20
265.7297220807
 30
0.0
 40
7.015114999990838
100
AcDbArc
 50
0.0000387207
 51
89.9999999999
  0
CIRCLE
  5
15F
330
1B
100
AcDbEntity
 67
     1
  8
SLD-0
 62
   179
100
AcDbCircle
 10
586.9660316852
 20
350.9272019601
 30
0.0
 40
1.499998879387518
  0
CIRCLE
  5
160
330
1B
100
AcDbEntity
 67
     1
  8
SLD-0
 62
   179
100
AcDbCircle
 10
586.9660316852
 20
269.5272019601
 30
0.0
 40
1.499998879387392
  0
CIRCLE
  5
161
330
1B
100
AcDbEntity
 67
     1
  8
SLD-0
 62
   179
100
AcDbCircle
 10
484.7660316852
 20
350.9272019601
 30
0.0
 40
1.499998879387627
  0
CIRCLE
  5
162
330
1B
100
AcDbEntity
 67
     1
  8
SLD-0
 62
   179
100
AcDbCircle
 10
484.7660316852
 20
262.5272019601
 30
0.0
 40
1.499998879387627
  0
ARC
  5
163
330
1B
100
AcDbEntity
 67
     1
  8
SLD-0
 62
   179
100
AcDbCircle
 10
535.8660641829
 20
299.7271694623
 30
0.0
 40
44.9999663816298
100
AcDbArc
 50
269.9999571957
 51
0.0000428043
  0
ARC
  5
164
330
1B
100
AcDbEntity
 67
     1
  8
SLD-0
 62
   179
100
AcDbCircle
 10
535.8659969462
 20
299.7271694623
 30
0.0
 40
44.99996638162985
100
AcDbArc
 50
179.9999571957
 51
270.0000428042
  0
ARC
  5
165
330
1B
100
AcDbEntity
 67
     1
  8
SLD-0
 62
   179
100
AcDbCircle
 10
535.8659969462
 20
299.7272366991
 30
0.0
 40
44.99996638162963
100
AcDbArc
 50
89.9999571957
 51
180.0000428043
  0
ARC
  5
166
330
1B
100
AcDbEntity
 67
     1
  8
SLD-0
 62
   179
100
AcDbCircle
 10
535.8660641829
 20
299.7272366991
 30
0.0
 40
44.99996638162946
100
AcDbArc
 50
359.9999571957
 51
90.0000428042
  0
CIRCLE
  5
167
330
1B
100
AcDbEntity
 67
     1
  8
SLD-0
 62
   179
100
AcDbCircle
 10
494.6160324322
 20
340.977201213
 30
0.0
 40
2.499998132312704
  0
CIRCLE
  5
168
330
1B
100
AcDbEntity
 67
     1
  8
SLD-0
 62
   179
100
AcDbCircle
 10
577.1160324322
 20
340.977201213
 30
0.0
 40
2.499998132312758
  0
CIRCLE
  5
169
330
1B
100
AcDbEntity
 67
     1
  8
SLD-0
 62
   179
100
AcDbCircle
 10
577.1160324322
 20
258.477201213
 30
0.0
 40
2.499998132312758
  0
CIRCLE
  5
16A
330
1B
100
AcDbEntity
 67
     1
  8
SLD-0
 62
   179
100
AcDbCircle
 10
494.6160324322
 20
258.477201213
 30
0.0
 40
2.499998132312704
  0
ARC
  5
16B
330
1B
100
AcDbEntity
 67
     1
  8
SLD-0
 62
   179
100
AcDbCircle
 10
474.8659869357
 20
240.728081452
 30
0.0
 40
5.000000371344086
100
AcDbArc
 50
180.000496999
 51
269.9999957469
  0
ARC
  5
16C
330
1B
100
AcDbEntity
 67
     1
  8
SLD-0
 62
   179
100
AcDbCircle
 10
474.864958187
 20
358.7280794581
 30
0.0
 40
5.000001622695724
100
AcDbArc
 50
89.9996060633
 51
180.0004741502
  0
ARC
  5
16D
330
1B
100
AcDbEntity
 67
     1
  8
SLD-0
 62
   179
100
AcDbCircle
 10
596.8649571222
 20
358.7272036383
 30
0.0
 40
4.999999442502882
100
AcDbArc
 50
0.0004863539
 51
89.9995938609
  0
ARC
  5
16E
330
1B
100
AcDbEntity
 67
     1
  8
SLD-0
 62
   179
100
AcDbCircle
 10
596.865984942
 20
240.7272047035
 30
0.0
 40
5.000001622694757
100
AcDbArc
 50
269.9996060633
 51
0.0004741479
  0
ARC
  5
16F
330
1B
100
AcDbEntity
 67
     1
  8
SLD-0
 62
   179
100
AcDbCircle
 10
535.8660305645
 20
235.7276420808
 30
0.0
 40
5.000000000129599
100
AcDbArc
 50
359.9995874715
 51
179.9995874715
  0
ARC
  5
170
330
1B
100
AcDbEntity
 67
     1
  8
SLD-0
 62
   179
100
AcDbCircle
 10
474.8659869357
 20
383.728081452
 30
0.0
 40
5.000000371343972
100
AcDbArc
 50
180.000496999
 51
269.9999957469
  0
ARC
  5
171
330
1B
100
AcDbEntity
 67
     1
  8
SLD-0
 62
   179
100
AcDbCircle
 10
474.864958187
 20
501.7280794581
 30
0.0
 40
5.000001622696576
100
AcDbArc
 50
89.9996060633
 51
180.0004741502
  0
ARC
  5
172
330
1B
100
AcDbEntity
 67
     1
  8
SLD-0
 62
   179
100
AcDbCircle
 10
596.8649571222
 20
501.7272036383
 30
0.0
 40
4.999999442502882
100
AcDbArc
 50
0.0004863539
 51
89.9995938609
  0
ARC
  5
173
330
1B
100
AcDbEntity
 67
     1
  8
SLD-0
 62
   179
100
AcDbCircle
 10
596.865984942
 20
383.7272047035
 30
0.0
 40
5.000001622695772
100
AcDbArc
 50
269.9996060633
 51
0.0004741479
  0
ARC
  5
174
330
1B
100
AcDbEntity
 67
     1
  8
SLD-0
 62
   179
100
AcDbCircle
 10
535.8660305645
 20
378.7276420808
 30
0.0
 40
5.000000000129599
100
AcDbArc
 50
359.9995874715
 51
179.9995874715
  0
CIRCLE
  5
175
330
1B
100
AcDbEntity
 67
     1
  8
SLD-0
 62
   179
100
AcDbCircle
 10
573.3660828805
 20
418.2272007648
 30
0.0
 40
3.099997684067802
  0
CIRCLE
  5
176
330
1B
100
AcDbEntity
 67
     1
  8
SLD-0
 62
   179
100
AcDbCircle
 10
560.3660828805
 20
405.2272007648
 30
0.0
 40
3.099997684067944
  0
CIRCLE
  5
177
330
1B
100
AcDbEntity
 67
     1
  8
SLD-0
 62
   179
100
AcDbCircle
 10
511.3660828805
 20
405.2272007648
 30
0.0
 40
3.099997684067819
  0
CIRCLE
  5
178
330
1B
100
AcDbEntity
 67
     1
  8
SLD-0
 62
   179
100
AcDbCircle
 10
498.3660828805
 20
418.2272007648
 30
0.0
 40
3.099997684067927
  0
CIRCLE
  5
179
330
1B
100
AcDbEntity
 67
     1
  8
SLD-0
 62
   179
100
AcDbCircle
 10
498.3660828805
 20
467.2272007648
 30
0.0
 40
3.099997684067944
  0
CIRCLE
  5
17A
330
1B
100
AcDbEntity
 67
     1
  8
SLD-0
 62
   179
100
AcDbCircle
 10
511.3660828805
 20
480.2272007648
 30
0.0
 40
3.099997684067927
  0
CIRCLE
  5
17B
330
1B
100
AcDbEntity
 67
     1
  8
SLD-0
 62
   179
100
AcDbCircle
 10
560.3660828805
 20
480.2272007648
 30
0.0
 40
3.099997684067927
  0
CIRCLE
  5
17C
330
1B
100
AcDbEntity
 67
     1
  8
SLD-0
 62
   179
100
AcDbCircle
 10
573.3660828805
 20
467.2272007648
 30
0.0
 40
3.099997684067944
  0
CIRCLE
  5
17D
330
1B
100
AcDbEntity
 67
     1
  8
SLD-0
 62
   179
100
AcDbCircle
 10
586.9660816852
 20
493.9272019601
 30
0.0
 40
1.499998879387627
  0
CIRCLE
  5
17E
330
1B
100
AcDbEntity
 67
     1
  8
SLD-0
 62
   179
100
AcDbCircle
 10
586.9660816852
 20
412.5272019601
 30
0.0
 40
1.499998879387518
  0
CIRCLE
  5
17F
330
1B
100
AcDbEntity
 67
     1
  8
SLD-0
 62
   179
100
AcDbCircle
 10
484.7660816852
 20
493.9272019601
 30
0.0
 40
1.499998879387627
  0
CIRCLE
  5
180
330
1B
100
AcDbEntity
 67
     1
  8
SLD-0
 62
   179
100
AcDbCircle
 10
484.7660816852
 20
405.5272019601
 30
0.0
 40
1.499998879387627
  0
ARC
  5
181
330
1B
100
AcDbEntity
 67
     1
  8
SLD-0
 62
   179
100
AcDbCircle
 10
626.1358635181
 20
402.0899252391
 30
0.0
 40
1.999998505900625
100
AcDbArc
 50
179.9999571972
 51
270.0000428028
  0
ARC
  5
182
330
1B
100
AcDbEntity
 67
     1
  8
SLD-0
 62
   179
100
AcDbCircle
 10
632.1358665063
 20
402.089925239
 30
0.0
 40
1.999998505850659
100
AcDbArc
 50
269.9999571957
 51
0.0000428043
  0
ARC
  5
183
330
1B
100
AcDbEntity
 67
     1
  8
SLD-0
 62
   179
100
AcDbCircle
 10
644.131329525
 20
408.089929219
 30
0.0
 40
4.999997514157421
100
AcDbArc
 50
89.9999714993
 51
179.9986877638
  0
ARC
  5
184
330
1B
100
AcDbEntity
 67
     1
  8
SLD-0
 62
   179
100
AcDbCircle
 10
694.1358687476
 20
408.0899304686
 30
0.0
 40
4.999996264601381
100
AcDbArc
 50
359.9999571954
 51
90.0000428046
  0
ARC
  5
185
330
1B
100
AcDbEntity
 67
     1
  8
SLD-0
 62
   179
100
AcDbCircle
 10
720.1358635181
 20
402.0899252391
 30
0.0
 40
1.999998505900625
100
AcDbArc
 50
179.9999571972
 51
270.0000428028
  0
ARC
  5
186
330
1B
100
AcDbEntity
 67
     1
  8
SLD-0
 62
   179
100
AcDbCircle
 10
726.1358665064
 20
402.089925239
 30
0.0
 40
1.999998505850659
100
AcDbArc
 50
269.9999571957
 51
0.0000428043
  0
ARC
  5
187
330
1B
100
AcDbEntity
 67
     1
  8
SLD-0
 62
   179
100
AcDbCircle
 10
726.1358665064
 20
466.0982012274
 30
0.0
 40
1.99999850580058
100
AcDbArc
 50
359.9999571943
 51
90.0000428057
  0
ARC
  5
188
330
1B
100
AcDbEntity
 67
     1
  8
SLD-0
 62
   179
100
AcDbCircle
 10
720.1358635181
 20
466.0982012273
 30
0.0
 40
1.999998505850602
100
AcDbArc
 50
89.9999571957
 51
180.0000428043
  0
ARC
  5
189
330
1B
100
AcDbEntity
 67
     1
  8
SLD-0
 62
   179
100
AcDbCircle
 10
632.1358665064
 20
466.0982012274
 30
0.0
 40
1.99999850580058
100
AcDbArc
 50
359.9999571943
 51
90.0000428057
  0
ARC
  5
18A
330
1B
100
AcDbEntity
 67
     1
  8
SLD-0
 62
   179
100
AcDbCircle
 10
626.1358635181
 20
466.0982012273
 30
0.0
 40
1.999998505850716
100
AcDbArc
 50
89.9999571957
 51
180.0000428043
  0
ARC
  5
18B
330
1B
100
AcDbEntity
 67
     1
  8
SLD-0
 62
   179
100
AcDbCircle
 10
626.1405135181
 20
554.0982012273
 30
0.0
 40
1.999998505850602
100
AcDbArc
 50
89.9999571957
 51
180.0000428043
  0
ARC
  5
18C
330
1B
100
AcDbEntity
 67
     1
  8
SLD-0
 62
   179
100
AcDbCircle
 10
632.1405165064
 20
554.0982012274
 30
0.0
 40
1.99999850580058
100
AcDbArc
 50
359.9999571943
 51
90.0000428057
  0
ARC
  5
18D
330
1B
100
AcDbEntity
 67
     1
  8
SLD-0
 62
   179
100
AcDbCircle
 10
644.1359795251
 20
548.0981972474
 30
0.0
 40
4.999997514206003
100
AcDbArc
 50
180.0013122368
 51
270.0000285001
  0
ARC
  5
18E
330
1B
100
AcDbEntity
 67
     1
  8
SLD-0
 62
   179
100
AcDbCircle
 10
694.1405187476
 20
548.0981959978
 30
0.0
 40
4.999996264651517
100
AcDbArc
 50
269.999957196
 51
0.000042804
  0
ARC
  5
18F
330
1B
100
AcDbEntity
 67
     1
  8
SLD-0
 62
   179
100
AcDbCircle
 10
720.1405135181
 20
554.0982012273
 30
0.0
 40
1.999998505850602
100
AcDbArc
 50
89.9999571957
 51
180.0000428043
  0
ARC
  5
190
330
1B
100
AcDbEntity
 67
     1
  8
SLD-0
 62
   179
100
AcDbCircle
 10
726.1405165064
 20
554.0982012274
 30
0.0
 40
1.99999850580058
100
AcDbArc
 50
359.9999571943
 51
90.0000428057
  0
ARC
  5
191
330
1B
100
AcDbEntity
 67
     1
  8
SLD-0
 62
   179
100
AcDbCircle
 10
726.1405165064
 20
490.089925239
 30
0.0
 40
1.999998505850602
100
AcDbArc
 50
269.9999571957
 51
0.0000428043
  0
ARC
  5
192
330
1B
100
AcDbEntity
 67
     1
  8
SLD-0
 62
   179
100
AcDbCircle
 10
720.1405135181
 20
490.0899252391
 30
0.0
 40
1.999998505900511
100
AcDbArc
 50
179.9999571972
 51
270.0000428028
  0
ARC
  5
193
330
1B
100
AcDbEntity
 67
     1
  8
SLD-0
 62
   179
100
AcDbCircle
 10
632.1405165064
 20
490.089925239
 30
0.0
 40
1.999998505850545
100
AcDbArc
 50
269.9999571957
 51
0.0000428043
  0
ARC
  5
194
330
1B
100
AcDbEntity
 67
     1
  8
SLD-0
 62
   179
100
AcDbCircle
 10
626.1405135181
 20
490.0899252391
 30
0.0
 40
1.999998505900625
100
AcDbArc
 50
179.9999571972
 51
270.0000428028
  0
MTEXT
  5
196
330
1B
100
AcDbEntity
 67
     1
  8
SLD-0
 62
   179
100
AcDbMText
 10
530.1629229061
 20
662.1710847095
 30
0.0
 40
50.0
 41
0.0
 71
     1
 72
     1
  1
type6
  7
SLDTEXTSTYLE0
 73
     1
 44
1.0
  0
ENDSEC
  0
SECTION
  2
OBJECTS
  0
DICTIONARY
  5
C
330
0
100
AcDbDictionary
281
     1
  3
ACAD_GROUP
350
D
  3
ACAD_LAYOUT
350
1A
  3
ACAD_MLINESTYLE
350
17
  3
ACAD_PLOTSETTINGS
350
19
  3
ACAD_PLOTSTYLENAME
350
E
  3
ACAD_SCALELIST
350
47
  0
DICTIONARY
  5
D
102
{ACAD_REACTORS
330
C
102
}
330
C
100
AcDbDictionary
281
     1
  0
DICTIONARY
  5
1A
102
{ACAD_REACTORS
330
C
102
}
330
C
100
AcDbDictionary
281
     1
  3
Layout2
350
26
  3
Model
350
22
  3
SW_SW_Model_1_2
350
1E
  0
DICTIONARY
  5
17
102
{ACAD_REACTORS
330
C
102
}
330
C
100
AcDbDictionary
281
     1
  3
Standard
350
18
  0
DICTIONARY
  5
19
102
{ACAD_REACTORS
330
C
102
}
330
C
100
AcDbDictionary
281
     1
  0
ACDBDICTIONARYWDFLT
  5
E
102
{ACAD_REACTORS
330
C
102
}
330
C
100
AcDbDictionary
281
     1
  3
Normal
350
F
100
AcDbDictionaryWithDefault
340
F
  0
DICTIONARY
  5
47
102
{ACAD_REACTORS
330
C
102
}
330
C
100
AcDbDictionary
281
     1
  3
A0
350
48
  3
A1
350
49
  3
A2
350
4A
  3
A3
350
4B
  3
A4
350
4C
  3
A5
350
4D
  3
A6
350
4E
  3
A7
350
4F
  3
A8
350
50
  3
A9
350
51
  3
B0
350
52
  3
B1
350
53
  3
B2
350
54
  3
B3
350
55
  3
B4
350
56
  3
B5
350
57
  3
B6
350
58
  3
B7
350
59
  3
B8
350
5A
  3
B9
350
5B
  3
C0
350
5C
  3
C1
350
5D
  3
C2
350
5E
  3
C3
350
5F
  3
C4
350
60
  3
C5
350
61
  3
C6
350
62
  3
C7
350
63
  3
C8
350
64
  3
C9
350
65
  3
D0
350
66
  3
D1
350
67
  3
D2
350
68
  0
LAYOUT
  5
26
102
{ACAD_REACTORS
330
1A
102
}
330
1A
100
AcDbPlotSettings
  1

  2
none_device
  4

  6

 40
0.0
 41
0.0
 42
0.0
 43
0.0
 44
0.0
 45
0.0
 46
0.0
 47
0.0
 48
0.0
 49
0.0
140
0.0
141
0.0
142
1.0
143
1.0
 70
   688
 72
     1
 73
     0
 74
     5
  7

 75
    16
147
1.0
148
0.0
149
0.0
100
AcDbLayout
  1
Layout2
 70
     1
 71
     2
 10
0.0
 20
0.0
 11
0.0
 21
0.0
 12
0.0
 22
0.0
 32
0.0
 14
0.0
 24
0.0
 34
0.0
 15
0.0
 25
0.0
 35
0.0
146
0.0
 13
0.0
 23
0.0
 33
0.0
 16
1.0
 26
0.0
 36
0.0
 17
0.0
 27
1.0
 37
0.0
 76
     0
330
23
  0
LAYOUT
  5
22
102
{ACAD_REACTORS
330
1A
102
}
330
1A
100
AcDbPlotSettings
  1

  2
none_device
  4
Letter_(8.50_x_11.00_Inches)
  6

 40
6.35
 41
6.35
 42
6.35000508
 43
6.35000508
 44
215.9
 45
279.4
 46
0.0
 47
0.0
 48
0.0
 49
0.0
140
0.0
141
0.0
142
1.0
143
1.0
 70
  1712
 72
     1
 73
     0
 74
     0
  7

 75
     0
147
1.0
148
0.0
149
0.0
100
AcDbLayout
  1
Model
 70
     1
 71
     0
 10
0.0
 20
0.0
 11
1189.0
 21
841.0
 12
0.0
 22
0.0
 32
0.0
 14
0.0
 24
0.0
 34
0.0
 15
1189.0
 25
841.0
 35
0.0
146
0.0
 13
0.0
 23
0.0
 33
0.0
 16
1.0
 26
0.0
 36
0.0
 17
0.0
 27
1.0
 37
0.0
 76
     0
330
1F
331
29
  0
LAYOUT
  5
1E
102
{ACAD_REACTORS
330
1A
102
}
330
1A
100
AcDbPlotSettings
  1

  2
none_device
  4
ISO_A0_(1189.00_x_841.00_MM)
  6

 40
7.5
 41
20.0
 42
7.5
 43
20.0
 44
1189.0
 45
841.0
 46
0.0
 47
0.0
 48
0.0
 49
0.0
140
0.0
141
0.0
142
1.0
143
1.0
 70
  4832
 72
     0
 73
     0
 74
     1
  7

 75
     0
147
1.0
148
0.0
149
0.0
100
AcDbLayout
  1
SW_SW_Model_1_2
 70
     1
 71
     2
 10
0.0
 20
0.0
 11
1189.0
 21
841.0
 12
0.0
 22
0.0
 32
0.0
 14
0.0
 24
0.0
 34
0.0
 15
1189.0
 25
841.0
 35
0.0
146
0.0
 13
0.0
 23
0.0
 33
0.0
 16
1.0
 26
0.0
 36
0.0
 17
0.0
 27
1.0
 37
0.0
 76
     0
330
1B
331
7A
  0
MLINESTYLE
  5
18
102
{ACAD_REACTORS
330
17
102
}
330
17
100
AcDbMlineStyle
  2
Standard
 70
     0
  3

 62
   256
 51
90.0
 52
90.0
 71
     2
 49
0.5
 62
   256
  6
BYLAYER
 49
-0.5
 62
   256
  6
BYLAYER
  0
ACDBPLACEHOLDER
  5
F
102
{ACAD_REACTORS
330
E
102
}
330
E
  0
SCALE
  5
48
102
{ACAD_REACTORS
330
47
102
}
330
47
100
AcDbScale
 70
     0
300
1:1
140
1.0
141
1.0
290
     1
  0
SCALE
  5
49
102
{ACAD_REACTORS
330
47
102
}
330
47
100
AcDbScale
 70
     0
300
1:2
140
1.0
141
2.0
290
     0
  0
SCALE
  5
4A
102
{ACAD_REACTORS
330
47
102
}
330
47
100
AcDbScale
 70
     0
300
1:4
140
1.0
141
4.0
290
     0
  0
SCALE
  5
4B
102
{ACAD_REACTORS
330
47
102
}
330
47
100
AcDbScale
 70
     0
300
1:5
140
1.0
141
5.0
290
     0
  0
SCALE
  5
4C
102
{ACAD_REACTORS
330
47
102
}
330
47
100
AcDbScale
 70
     0
300
1:8
140
1.0
141
8.0
290
     0
  0
SCALE
  5
4D
102
{ACAD_REACTORS
330
47
102
}
330
47
100
AcDbScale
 70
     0
300
1:10
140
1.0
141
10.0
290
     0
  0
SCALE
  5
4E
102
{ACAD_REACTORS
330
47
102
}
330
47
100
AcDbScale
 70
     0
300
1:16
140
1.0
141
16.0
290
     0
  0
SCALE
  5
4F
102
{ACAD_REACTORS
330
47
102
}
330
47
100
AcDbScale
 70
     0
300
1:20
140
1.0
141
20.0
290
     0
  0
SCALE
  5
50
102
{ACAD_REACTORS
330
47
102
}
330
47
100
AcDbScale
 70
     0
300
1:30
140
1.0
141
30.0
290
     0
  0
SCALE
  5
51
102
{ACAD_REACTORS
330
47
102
}
330
47
100
AcDbScale
 70
     0
300
1:40
140
1.0
141
40.0
290
     0
  0
SCALE
  5
52
102
{ACAD_REACTORS
330
47
102
}
330
47
100
AcDbScale
 70
     0
300
1:50
140
1.0
141
50.0
290
     0
  0
SCALE
  5
53
102
{ACAD_REACTORS
330
47
102
}
330
47
100
AcDbScale
 70
     0
300
1:100
140
1.0
141
100.0
290
     0
  0
SCALE
  5
54
102
{ACAD_REACTORS
330
47
102
}
330
47
100
AcDbScale
 70
     0
300
2:1
140
2.0
141
1.0
290
     0
  0
SCALE
  5
55
102
{ACAD_REACTORS
330
47
102
}
330
47
100
AcDbScale
 70
     0
300
4:1
140
4.0
141
1.0
290
     0
  0
SCALE
  5
56
102
{ACAD_REACTORS
330
47
102
}
330
47
100
AcDbScale
 70
     0
300
8:1
140
8.0
141
1.0
290
     0
  0
SCALE
  5
57
102
{ACAD_REACTORS
330
47
102
}
330
47
100
AcDbScale
 70
     0
300
10:1
140
10.0
141
1.0
290
     0
  0
SCALE
  5
58
102
{ACAD_REACTORS
330
47
102
}
330
47
100
AcDbScale
 70
     0
300
100:1
140
100.0
141
1.0
290
     0
  0
SCALE
  5
59
102
{ACAD_REACTORS
330
47
102
}
330
47
100
AcDbScale
 70
     0
300
1/128" = 1'-0"
140
0.0078125
141
12.0
290
     0
  0
SCALE
  5
5A
102
{ACAD_REACTORS
330
47
102
}
330
47
100
AcDbScale
 70
     0
300
1/64" = 1'-0"
140
0.015625
141
12.0
290
     0
  0
SCALE
  5
5B
102
{ACAD_REACTORS
330
47
102
}
330
47
100
AcDbScale
 70
     0
300
1/32" = 1'-0"
140
0.03125
141
12.0
290
     0
  0
SCALE
  5
5C
102
{ACAD_REACTORS
330
47
102
}
330
47
100
AcDbScale
 70
     0
300
1/16" = 1'-0"
140
0.0625
141
12.0
290
     0
  0
SCALE
  5
5D
102
{ACAD_REACTORS
330
47
102
}
330
47
100
AcDbScale
 70
     0
300
3/32" = 1'-0"
140
0.09375
141
12.0
290
     0
  0
SCALE
  5
5E
102
{ACAD_REACTORS
330
47
102
}
330
47
100
AcDbScale
 70
     0
300
1/8" = 1'-0"
140
0.125
141
12.0
290
     0
  0
SCALE
  5
5F
102
{ACAD_REACTORS
330
47
102
}
330
47
100
AcDbScale
 70
     0
300
3/16" = 1'-0"
140
0.1875
141
12.0
290
     0
  0
SCALE
  5
60
102
{ACAD_REACTORS
330
47
102
}
330
47
100
AcDbScale
 70
     0
300
1/4" = 1'-0"
140
0.25
141
12.0
290
     0
  0
SCALE
  5
61
102
{ACAD_REACTORS
330
47
102
}
330
47
100
AcDbScale
 70
     0
300
3/8" = 1'-0"
140
0.375
141
12.0
290
     0
  0
SCALE
  5
62
102
{ACAD_REACTORS
330
47
102
}
330
47
100
AcDbScale
 70
     0
300
1/2" = 1'-0"
140
0.5
141
12.0
290
     0
  0
SCALE
  5
63
102
{ACAD_REACTORS
330
47
102
}
330
47
100
AcDbScale
 70
     0
300
3/4" = 1'-0"
140
0.75
141
12.0
290
     0
  0
SCALE
  5
64
102
{ACAD_REACTORS
330
47
102
}
330
47
100
AcDbScale
 70
     0
300
1" = 1'-0"
140
1.0
141
12.0
290
     0
  0
SCALE
  5
65
102
{ACAD_REACTORS
330
47
102
}
330
47
100
AcDbScale
 70
     0
300
1-1/2" = 1'-0"
140
1.5
141
12.0
290
     0
  0
SCALE
  5
66
102
{ACAD_REACTORS
330
47
102
}
330
47
100
AcDbScale
 70
     0
300
3" = 1'-0"
140
3.0
141
12.0
290
     0
  0
SCALE
  5
67
102
{ACAD_REACTORS
330
47
102
}
330
47
100
AcDbScale
 70
     0
300
6" = 1'-0"
140
6.0
141
12.0
290
     0
  0
SCALE
  5
68
102
{ACAD_REACTORS
330
47
102
}
330
47
100
AcDbScale
 70
     0
300
1'-0" = 1'-0"
140
12.0
141
12.0
290
     0
  0
ENDSEC
  0
EOF
